Song name
# A B C D E F G H I J K L M N O P Q R S T U V W X Y Z

Helmet - Harmless tab

-----------------------------------------------------------------------------
                           HARMLESS - Helmet
-----------------------------------------------------------------------------

Tabbed by an17nin17
Email - c.norman83@ntlworld.com

Drop D Tuning - D, A, D, G, B, E

Intro

|-----|-------------------------------------|------------------------|
|-----|-------------------------------------|------------------------|
|-----|-------------------------------------|------------------------|
|-9~~-|-9--3--0--2--0--2-2-----9--3--0--2~~-|-9--3--0--2--0--2-3-4-7-|
|-9~~-|-9--3--0--2--0--2-2-----9--3--0--2~~-|-9--3--0--2--0--2-3-4-7-|
|-9~~-|-9--3--0--2--0--2-2-----9--3--0--2~~-|-9--3--0--2--0--2-3-4-7-|
                                            | Play x 8

Verse

|------------------------------|
|------------------------------|
|------------------------------|
|-2-0-2--2-0-2--2-0-2--2-0-0h2-|
|-2-0-2--2-0-2--2-0-2--2-0-0h2-|
|-2-0-2--2-0-2--2-0-2--2-0-0h2-|
  Play x 4

Chorus

|------------------------|
|------------------------|
|------------------------|
|-9--3--0--2--0--2-3-4-7-|
|-9--3--0--2--0--2-3-4-7-|
|-9--3--0--2--0--2-3-4-7-|
  Play x 8

|------------------------------|
|------------------------------|
|------------------------------|
|-2-0-2--2-0-2--2-0-2--2-0-0h2-|
|-2-0-2--2-0-2--2-0-2--2-0-0h2-|
|-2-0-2--2-0-2--2-0-2--2-0-0h2-|
  Play x 4

|------------------------|-------------------|------|
|------------------------|-1010101010101010--|-DRUM-|
|------------------------|-9-9-9-9-9-9-9-9---|------|
|-9--3--0--2--0--2-3-4-7-|-8-8-8-8-8-8-8-8-9-|------|
|-9--3--0--2--0--2-3-4-7-|-8-8-8-8-8-8-8-8-9-|-SOLO-|
|-9--3--0--2--0--2-3-4-7-|-8-8-8-8-8-8-8-8-9-|------|
  Play x 8               |

Outro

|------------------------|-------------------|------------------------|
|------------------------|-1010101010101010--|------------------------|
|------------------------|-9-9-9-9-9-9-9-9---|------------------------|
|-9--3--0--2--0--2-3-4-7-|-8-8-8-8-8-8-8-8-9-|-9--3--0--2--0--2-3-4-7-|
|-9--3--0--2--0--2-3-4-7-|-8-8-8-8-8-8-8-8-9-|-9--3--0--2--0--2-3-4-7-|
|-9--3--0--2--0--2-3-4-7-|-8-8-8-8-8-8-8-8-9-|-9--3--0--2--0--2-3-4-7-|
  Play x 8               |                   | Play x 8

|-----|
|-----|
|-----|
|-8~~-|
|-8~~-|
|-8~~-|

Contact me if you have any comments about this tab.
Tap to rate this tab
# A B C D E F G H I J K L M N O P Q R S T U V W X Y Z