Song name
# A B C D E F G H I J K L M N O P Q R S T U V W X Y Z

Helmet - Monochrome tab

-----------------------------------------------------------------------------
			  Monochrome - Helmet
-----------------------------------------------------------------------------
Tabbed by: Wolfer
Email: abbycrusher@ameritech.net

Tuning: Drop D


Intro: (Repeat 3X)
e|----1-------3-----------4-------3------4--3---0-3-------|
B|------1-------1---1-------1--------1-------------------O|
G|--------------------------------------------------------|
D|-3------3-------3---3-------3---------------------------|
A|-------------------------------------------------------O|
E|--------------------------------------------------------|


Pre-Riff: (Repeat 3X)
e|-------------------------------------------|
B|------------------------------------------O|
G|-------------------------------------------|
D|-----3-0-3-0-5-0-5-0-6-0-6-0-5-0-6-5-0-5---|
A|-----3-0-3-0-5-0-5-0-6-0-6-0-5-0-6-5-0-5--O|
E|-----3-0-3-0-5-0-5-0-6-0-6-0-5-0-6-5-0-5---|

e|-----------------------|
B|-----------------------|
G|-----------------------|
D|-----3-0-3-0-5-0-5-0---|
A|-----3-0-3-0-5-0-5-0---|
E|-----3-0-3-0-5-0-5-0---|


Main Riff (The Singing):
e|--------------------------------------------------|
B|-----------------7b(8)--6-6-----------------------|
G|----8-7-5---5---------------5----8-7-5---5-5b(6)--|
D|----------8----------------------------8----------|
A|--------------------------------------------------|
E|--------------------------------------------------|

e|--------------------------------------------------|
B|--------------------7b(8)-6-6---------------------|
G|----8-8-8-7-5---5-------------5--6----------------|
D|--------------8-----------------------------------|
A|--------------------------------------------------|
E|--------------------------------------------------|


     ('Near The Bridge' Motion Hitting)
e|-------------------------------------------|
B|-------------------------------------------|
G|-------------------------------------------|
D|-----3-0-3-035-0-5-0-6-0-6-0-5-0-6-5-0-5---|
A|-----3-0-3-035-0-5-0-6-0-6-0-5-0-6-5-0-5---|
E|-----3-0-3-035-0-5-0-6-0-6-0-5-0-6-5-0-5---|


Pre-Riff: (Repeat 3X)
e|-------------------------------------------|
B|------------------------------------------O|
G|-------------------------------------------|
D|-----3-0-3-0-5-0-5-0-6-0-6-0-5-0-6-5-0-5---|
A|-----3-0-3-0-5-0-5-0-6-0-6-0-5-0-6-5-0-5--O|
E|-----3-0-3-0-5-0-5-0-6-0-6-0-5-0-6-5-0-5---|

e|-----------------------|
B|-----------------------|
G|-----------------------|
D|-----3-0-3-0-5-0-5-0---|
A|-----3-0-3-0-5-0-5-0---|
E|-----3-0-3-0-5-0-5-0---|

Main Riff (The Singing):
e|--------------------------------------------------|
B|-----------------7b(8)--6-6-----------------------|
G|----8-7-5---5---------------5----8-7-5---5-5b(6)--|
D|----------8----------------------------8----------|
A|--------------------------------------------------|
E|--------------------------------------------------|

e|--------------------------------------------------|
B|--------------------7b(8)-6-6---------------------|
G|----8-8-8-7-5---5-------------5--6----------------|
D|--------------8-----------------------------------|
A|--------------------------------------------------|
E|--------------------------------------------------|


'The Follower':
e|----------------------------------3) LET--------------------------3) RING-|
B|-(Reason For Less Chords Is)-----2) EM'-------------------------2) WITH---|
G|--(To Catch The High Notes)----3) RING---(Catch The Rhythm)---3) CUT'OFF--|
D|---8-8-8-8-8-8-8-8------------------------8-8-8-8-8-8-8-8-----------------|
A|---8-8-8-8-8-8-8-8------------------------8-8-8-8-8-8-8-8-----------------|
E|---8-8-8-8-8-8-8-8------------------------8-8-8-8-8-8-8-8-----------------|

e|-------------------|
B|-------------------|
G|-------------------|
D|--3-3-3-3-3-3-3-3--|
A|--3-3-3-3-3-3-3-3--|
E|--3-3-3-3-3-3-3-3--|

e|------------------------3) LET--------------------------|
B|----------------------2) EM'----------------------------|
G|--------------------3) RING-----------------------------|8x 8x 8x 8x
D|---8-8-8-8-8-8-8-8---------------8-8-8-8-8-8-8-8----------4--5--6--7--|
A|---8-8-8-8-8-8-8-8---------------8-8-8-8-8-8-8-8----------4--5--6--7--|
E|---8-8-8-8-8-8-8-8---------------8-8-8-8-8-8-8-8----------4--5--6--7--|

Solo: (Listen To Rhythm To Learn This, But These Are The Notes Which I Play  
          Em')
                   (It's Played Quick!!)

e|---15b(16)--15--14b(15)--15--------------------------------|
B|-----------------------------------------------------------|
G|-----------------------------20--15--17--------------------|
D|-----------------------------------------------------------|
A|-----------------------------------------------------------|
E|-----------------------------------------------------------|
   
   (Combines)                                                                         
e|---14-15----14b(15)---15----(18 to 15 increasing in speed)---|
B|-------------------------------------------------------------|
G|-------------------------------------------------------------|
D|-------------------------------------------------------------|
A|-------------------------------------------------------------|
E|-------------------------------------------------------------|
                             
                               (Pop!)
e|---18b(19)-18--20b(21)--20---20b(21)---(Slide Down Fade)---|
B|-----------------------------------------------------------|
G|-----------------------------------------------------------|
D|-----------------------------------------------------------|
A|-----------------------------------------------------------|
E|-----------------------------------------------------------|


Main Riff (The Singing):
e|--------------------------------------------------|
B|-----------------7b(8)--6-6-----------------------|
G|----8-7-5---5---------------5----8-7-5---5-5b(6)--|
D|----------8----------------------------8----------|
A|--------------------------------------------------|
E|--------------------------------------------------|

e|--------------------------------------------------|
B|--------------------7b(8)-6-6---------------------|
G|----8-8-8-7-5---5-------------5--6----------------|
D|--------------8-----------------------------------|
A|--------------------------------------------------|
E|--------------------------------------------------|

e|--------------------------------------------------|
B|--------------------------------------------------|
G|----8-7-5---5-(Let It Ring)------8-7-5---5-5b(6)--|
D|----------8----------------------------8----------|
A|--------------------------------------------------|
E|--------------------------------------------------|

e|-------------------------------------------------------------|
B|-----------------------------------7b(8)-6-6-----------------|
G|----8-8-8-7-5---5----------------------------5-(Into Intro)--|
D|--------------8----(Cut Off Here-----------------------------|
A|---------------------If Wanting To---------------------------|
E|----------------------To Get To Intro)-----------------------|

Intro: (Repeat 4X)
e|----1-------3-----------4-------3------4--3---0-3-------|
B|------1-------1---1-------1--------1-------------------O|
G|--------------------------------------------------------|
D|-3------3-------3---3-------3---------------------------|
A|-------------------------------------------------------O|
E|--------------------------------------------------------|

End: (Pick Either Of The Two) ()()Ring()()
e|-1----------|
B|-1----------|
G|-X---OR-----|
D|-3--------3-|
A|----------3-|
E|----------3-|

Hope You Guys Enjoy It!! :)

Joe
Tap to rate this tab
# A B C D E F G H I J K L M N O P Q R S T U V W X Y Z