Guitaretab - guitar tabs
Song name
# A B C D E F G H I J K L M N O P Q R S T U V W X Y Z

Helmet - On Your Way Down tab

Helmet  On your way down (from Monochrome) tabbed by Kenny F

Drop C Tuning  CGCFAD

Intro

D|--------------------------| 
A|--------------------------|
F|--------------------------|
C|-7-8-5-6-7-8-5-6-7-85-4-3|
G|-7-8-5-6-7-8-5-6-7-85-4-3|
C|-7-8-5-6-7-8-5-6-7-85-4-3|

Main Verse

|--------------------------------------------------------|
|--------------------------------------------------------|
|--------------------------------------------------------|
|-0-3-2-0-1-2-0-2-0-3-2-0-1-2-3-0-3-2-0-1-2-0-2-3-3-4-5-6| 
|-0-3-2-0-1-2-0-2-0-3-2-0-1-2-3-0-3-2-0-1-2-0-2-3-3-4-5-6| 
|-0-3-2-0-1-2-0-2-0-3-2-0-1-2-3-0-3-2-0-1-2-0-2-3-3-4-5-6|

0:30

|---------------|
|---------------|
|---------------|
|-2-3-0-4-5-0-6-|
|-2-3-0-4-5-0-6-| 
|-2-3-0-4-5-0-6-|

Then back to main verse chords then: 0:48

|-------------|
|-------------|
|-------------|
|-2-3-0-2-3-0-|
|-2-3-0-2-3-0-| 
|-2-3-0-2-3-0-|

Chorus
[ Tab from: http://www.guitaretab.com/h/helmet/158153.html ]
|------------------------------------------------------|
|------------------------------------------------------|
|------------------------------------------------------|
|-5-6-7-8-9-10--7-8-9-10--7-8-9-10--7-8-9-10--7-8-5-6--|
|-5-6-7-8-9-10--7-8-9-10--7-8-9-10--7-8-9-10--7-8-5-6--| 
|-5-6-7-8-9-10--7-8-9-10--7-8-9-10--7-8-9-10--7-8-5-6--|

|----------------------------------------|
|----------------------------------------|
|----------------------------------------|
|-7-8-9-10-7-8-9-10-7-8-9-10-7-8-5-4-3-1-|
|-7-8-9-10-7-8-9-10-7-8-9-10-7-8-5-4-3-1-| 
|-7-8-9-10-7-8-9-10-7-8-9-10-7-8-5-4-3-1-|

Back to verse chords

Middle 8

|---------1--|
|-------3-3--|
|-----2---1--|
|-2-3-0---1--| 
|-2-3-0---1--| 
|-2-3-0---1--|
Play 4 times

|-------------------------------------|
|-------------------------------------|
|-------------------------------------|
|-1-0-1-0-1-0-1-0-1-0-1-0-1-0-1-2-3-5-| 
|-1-0-1-0-1-0-1-0-1-0-1-0-1-0-1-2-3-5-| 
|-1-0-1-0-1-0-1-0-1-0-1-0-1-0-1-2-3-5-|

At solo play this over again for a certain measure:

|-----|
|-----|
|-0-0-|
|-0-0-| 
|-7-0-|

And then just after solo finish: 3:13

|-----|
|-----|
|-9b-0|
|-----|
|-----| 
|-----|

Back to chorus chords, and then finish on:

|---------|
|---------|
|---------|
|-6-5-4-3-| 
|-6-5-4-3-| 
|-6-5-4-3-|

Play last chord 17x for finish.





Related for On Your Way Down tab