Song name
# A B C D E F G H I J K L M N O P Q R S T U V W X Y Z

Helmet - Bury Me tab

Song: Bury Me
Album: Monochrome
Artist: Helmet
Transcribed by: tituzz2 
Mail: walter_20xx@hotmail.com - vvalter


Note:   x~  -> long note
	

Intro:
|------------------------------------|
|-5-6-5~~--5-6-5~~--5-6-5~~--5-6-5~~-|
|------------------------------------|
|------------------------------------|
|------------------------------------|
|------------------------------------|

Verse:
|-------------------------------------------------|
|-------------------------------------------------|
|-------------------------------------------------|
|-0-2-0-2-0-2-0-2-0-2-2-0-2-2-0-2-0-2-0-2-6-6-5-6-|  X4
|-0-2-0-2-0-2-0-2-0-2-2-0-2-2-0-2-0-2-0-2-6-6-5-6-|
|-0-2-0-2-0-2-0-2-0-2-2-0-2-2-0-2-0-2-0-2-6-6-5-6-|

Chorus:
|-------------------------------------------------|
|-5-5-5-5-5-5-5-5-5-5-5-5-5-5-5-5-5-5-5-5-5-5-5-5-|
|-4-4-4-4-4-4-4-4-4-4-4-4-4-4-4-4-4-4-4-4-4-4-4-4-|
|-0-0-0-0-0-0-0-0-2-2-2-2-2-2-2-2-3-3-3-3-3-3-3-3-|  X2
|-2-2-2-2-2-2-2-2-2-2-2-2-2-2-2-2-3-3-3-3-3-3-3-3-|
|-0-0-0-0-0-0-0-0-2-2-2-2-2-2-2-2-3-3-3-3-3-3-3-3-|
  
After Chorus1:
|-------------|
|-------------|
|-------------|
|-4~-0~-2~-3~-|
|-4~-0~-2~-3~-|
|-4~-0~-2~-3~-|

After Chorus2:
|---------------------------------|
|-5-5-5-5-5-5-5-5-5-5-5-5-5-5-5-5-|
|-4-4-4-4-4-4-4-4-4-4-4-4-4-4-4-4-|
|-4-4-4-4-0-0-0-0-2-2-2-2-3-3-3-3-|  X4
|-4-4-4-4-0-0-0-0-2-2-2-2-3-3-3-3-|
|-4-4-4-4-0-0-0-0-2-2-2-2-3-3-3-3-|

Last Part:
|------------------------------------------|
|-5-5-5-5-5-5-5-5-5-5-5-5-5-5-5-5~~~~~~----|
|-4-4-4-4-4-4-4-4-4-4-4-4-4-4-4-4~~~~~~----|
|-4-4-4-4-0-0-0-0-2-2-2-2-3-3-3-3~~~-------| 
|-4-4-4-4-0-0-0-0-2-2-2-2-3-3-3-3~~~-------|
|-4-4-4-4-0-0-0-0-2-2-2-2-3-3-3-3~~~-----4-|


GUITAR1	          GUITAR2
Intro
Intro                                      
Verse                                        
Chorus                                       ISABEL.. 
Intro                 			       TE  
Verse 					        AMO...!!
Chorus                                        YA TEBYA LYUBLYU!!   
Verse               Solo1żż                    
Chorus
After Chorus1 
After Chorus2       Solo2żż
Last Part	   


that's all .. any questions, doubts or whatever... write me 

THE END
Tap to rate this tab
# A B C D E F G H I J K L M N O P Q R S T U V W X Y Z