Guitaretab - guitar tabs
Song name
# A B C D E F G H I J K L M N O P Q R S T U V W X Y Z

Helmet - Born Annoying tab

-----------------------------------------------------------------------------
                         BORN ANNOYING - Helmet
-----------------------------------------------------------------------------

Note : I don't think there is a tab book for this album, so I couldn't
of copied it out of a tab book.

Songs 1, 2, 3, 5, 6, 8 and 10 -  1995 Page Nye Hamilton
Song 4 unknown author
Song 7  1989 Buzz Osbourne (Melvins)
Song 9  1995 Killing Joke
All songs tabbed by an18nin18 (or an17nin17)
e - mail - c.norman83@ntlworld.com

Track Listing – 

1 – Born Annoying (1989)
2 – Rumble
3 – Shirley McClane
4 – Geisha To Go
5 – Taken
6 – Your Head
7 – Oven
8 – No Nicky No
9 – Primitive
10- Born Annoying (1993)

This is the complete album tab, not like many album tabs I have seen which
have songs missing from them.




1 – Born Annoying (1989)

Standard Tuning – E, A, D, G, B, E

Intro/Verse

|--------------------------------|----------------|
|--------------------------------|------------0-0-|
|--------------------------------|------------0-0-|
|-7-/5-7-/5-/8-8--7-/5-7-/5-/8-8-|-7-/5-7-/5-/8-8-|
|-7-/5-7-/5-/8-8--7-/5-7-/5-/8-8-|-7-/5-7-/5-/8-8-|
|-5-/3-5-/3-/6-6--5-/3-5-/3-/6-6-|-5-/3-5-/3-/6-6-|
  Play x 14                      | Play x 8

|--------------------------------|----------------|-----------------|
|--------------------------------|------------0-0-|-----------------|
|--------------------------------|------------0-0-|-----------------|
|-7-/5-7-/5-/8-8--7-/5-7-/5-/8-8-|-7-/5-7-/5-/8-8-|-8-8-8-8-8-8-8-8-|
|-7-/5-7-/5-/8-8--7-/5-7-/5-/8-8-|-7-/5-7-/5-/8-8-|-8-8-8-8-8-8-8-8-|
|-5-/3-5-/3-/6-6--5-/3-5-/3-/6-6-|-5-/3-5-/3-/6-6-|-6-6-6-6-6-6-6-6-|
  Play x 4                       | Play x 8       |

Chorus

|---------------------------------------|
|---------------------------------------|
|---------------------------------------|
|-4-4-x-x---4-4-x-x---4-4-x-x---4-4-5-2-|
|-4-4-x-x---4-4-x-x---4-4-x-x---4-4-5-2-|
|-2-2-x-x-0-2-2-x-x-0-2-2-x-x-0-2-2-3-0-|
  Play x 4

|--------------------------------|----------------|
|--------------------------------|------------0-0-|
|--------------------------------|------------0-0-|
|-7-/5-7-/5-/8-8--7-/5-7-/5-/8-8-|-7-/5-7-/5-/8-8-|
|-7-/5-7-/5-/8-8--7-/5-7-/5-/8-8-|-7-/5-7-/5-/8-8-|
|-5-/3-5-/3-/6-6--5-/3-5-/3-/6-6-|-5-/3-5-/3-/6-6-|
  Play x 8                       | Play x 8

|--------------------------------|----------------|-----------------|
|--------------------------------|------------0-0-|-----------------|
|--------------------------------|------------0-0-|-----------------|
|-7-/5-7-/5-/8-8--7-/5-7-/5-/8-8-|-7-/5-7-/5-/8-8-|-8-8-8-8-8-8-8-8-|
|-7-/5-7-/5-/8-8--7-/5-7-/5-/8-8-|-7-/5-7-/5-/8-8-|-8-8-8-8-8-8-8-8-|
|-5-/3-5-/3-/6-6--5-/3-5-/3-/6-6-|-5-/3-5-/3-/6-6-|-6-6-6-6-6-6-6-6-|
  Play x 4                       | Play x 8       |

Solo

|---------------------------------------|
|---------------------------------------|
|---------------------------------------|
|-4-4-x-x---4-4-x-x---4-4-x-x---4-4-5-2-|
|-4-4-x-x---4-4-x-x---4-4-x-x---4-4-5-2-|
|-2-2-x-x-0-2-2-x-x-0-2-2-x-x-0-2-2-3-0-|
  Play x 8

Outro

|---------|-----------------|
|---------|-----------------|
|---------|-GUITARS-GO-INTO-| 
|-4-4-5-2-|-----------------|
|-4-4-5-2-|-A-WALL-OF-NOISE-|
|-2-2-3-0-|-----------------|
 Play x 28|











2 – Rumble

Standard Tuning – E, A, D, G, B, E

Note – Pick scrape every single note in this song to create
the weird noise the guitar makes.

Intro/Verse

|---------------------------|
|---------------------------|
|---------------------------|
|---------------------------|
|-5-2-5-2-5-2-5-2-5-2-5-2-5-|
|-3-0-3-0-3-0-3-0-3-0-3-0-3-|
  Play x 12

Chorus

|-------------------------------------------|
|-------------------------------------------|
|-------------------------------------------|
|-33333333---44444444---66666666---77777777-|
|-33333333---44444444---66666666---77777777-|
|-11111111---22222222---44444444---55555555-|
  
|---------------------------|
|---------------------------|
|---------------------------|
|---------------------------|
|-5-2-5-2-5-2-5-2-5-2-5-2-5-|
|-3-0-3-0-3-0-3-0-3-0-3-0-3-|
  Play x 8

|-------------------------------------------|
|-------------------------------------------|
|-------------------------------------------|
|-33333333---44444444---66666666---77777777-|
|-33333333---44444444---66666666---77777777-|
|-11111111---22222222---44444444---55555555-|

Middle 8

|---------------------|---------------------|
|---------------------|---------------------|
|---------------------|---------------------|
|-6-6-6-6-6-6-6-6-5-5-|-7-/9-7-/9-7-/9-7-/9-|
|-6-6-6-6-6-6-6-6-5-5-|-7-/9-7-/9-7-/9-7-/9-|
|-4-4-4-4-4-4-4-4-3-3-|-5-/7-5-/7-5-/7-5-/7-|
  Play x 8            | Play x 24

|---------------------------|
|---------------------------|
|---------------------------|
|---------------------------|
|-5-2-5-2-5-2-5-2-5-2-5-2-5-|
|-3-0-3-0-3-0-3-0-3-0-3-0-3-|
  Play x 8

Outro

|-------------------------------------------|
|-------------------------------------------|
|-------------------------------------------|
|-33333333---44444444---66666666---77777777-|
|-33333333---44444444---66666666---77777777-|
|-11111111---22222222---44444444---55555555-|






3 – Shirley McClane

Standard Tuning – E, A, D, G, B, E

Intro

|--------------------|
|--------------------|
|--------------------|
|-111111111111-111111|
|-111111111111-111111|
|-9-9-9-9-9-9--9-9-9-|
  Play x 12

Verse

|-------------------------------------------------------------------------|
|-------------------------------------------------------------------------|
|-101010101010101010101010101010101010101010101010101010111111111111111111|
|-111111111111111111111111111111111111111111111111111111111111111111111111|
|-111111111111111111111111111111111111111111111111111111111111111111111111|
|-9-9-9-9-9-9-9-9-9-9-9-9-9-9-9-9-9-9-9-9-9-9-9-9-9-9-9-9-9-9-9-9-9-9-9-9-|
  Play x 8

Chorus

|-----------------------------------|
|-----------------------------------|
|-7-7-7-7-7-7-7-7---7-7-7-7-7-7-7-7-|
|-8-8-8-8-8-8-8-8---8-8-8-8-8-8-8-8-|
|-8-8-8-8-8-8-8-8---8-8-8-8-8-8-8-8-|
|-6-6-6-6-6-6-6-6---6-6-6-6-6-6-6-6-|
  Play x 4

|-------------------------------------------------------------------------|
|-------------------------------------------------------------------------|
|-101010101010101010101010101010101010101010101010101010111111111111111111|
|-111111111111111111111111111111111111111111111111111111111111111111111111|
|-111111111111111111111111111111111111111111111111111111111111111111111111|
|-9-9-9-9-9-9-9-9-9-9-9-9-9-9-9-9-9-9-9-9-9-9-9-9-9-9-9-9-9-9-9-9-9-9-9-9-|
  Play x 8

|-----------------------------------|
|-----------------------------------|
|-7-7-7-7-7-7-7-7---7-7-7-7-7-7-7-7-|
|-8-8-8-8-8-8-8-8---8-8-8-8-8-8-8-8-|
|-8-8-8-8-8-8-8-8---8-8-8-8-8-8-8-8-|
|-6-6-6-6-6-6-6-6---6-6-6-6-6-6-6-6-|
  Play x 4

Middle 8

|-----------------------------------------|-0-0-0-0-0-0-0-0-|
|-----------------------------------------|-0-0-0-0-0-0-0-0-|
|-----------------------------------------|-1-1-1-1-1-1-1-1-|
|-9-9-9-9-9-9-9-9-9-9-6-6-6-6-6-6-6-6-6-6-|-2-2-2-2-2-2-2-2-|
|-9-9-9-9-9-9-9-9-9-9-6-6-6-6-6-6-6-6-6-6-|-2-2-2-2-2-2-2-2-|
|-7-7-7-7-7-7-7-7-7-7-4-4-4-4-4-4-4-4-4-4-|-0-0-0-0-0-0-0-0-|
  Play x 8                                | Play x 24

Outro

|-------------------------------------------------|--------------|
|-------------------------------------------------|--------------|
|-------------------------------------------------|--------------|
|-4-4-4-4-4-4-4-4-4-4-4-4-4-4-4-4-4-4-4-4-4-4-4-4-|-4-4-4-4-4--6-|
|-4-4-4-4-4-4-4-4-4-4-4-4-4-4-4-4-4-4-4-4-4-4-4-4-|-4-4-4-4-4--6-|
|-2-2-2-2-2-2-2-2-2-2-2-2-2-2-2-2-2-2-2-2-2-2-2-2-|-2-2-2-2-2--4-|
  Play x 20                                       | Play x 32






4 – Geisha To Go

Standard Tuning – E, A, D, G, B, E

Intro

|-----------------|
|-9-9-9-9-9-9-9-9-|
|-9-9-9-9-9-9-9-9-|
|-9-9-9-9-9-9-9-9-|
|-7-7-7-7-7-7-7-7-|
|-/-/-/-/-/-/-/-/-|
  Play x 12

Verse

|---------------|
|---------------|
|-3--4--3--4--6-|
|---------------|
|---------------|
|---------------|
  Play x 10

Chorus 1

|---------------|
|---------------|
|-6-0-----0---0-|
|-----1-----1---|
|---------------|
|---------------|
  Play x 2

|---------------|
|---------------|
|-3--4--3--4--6-|
|---------------|
|---------------|
|---------------|
  Play x 8

Chorus 2

|----5-----1-----5--------1-|-----|
|---------------------------|-2~~-|
|-7-----3-----7-----7--3----|-----|
|---------------------------|-----|
|---------------------------|-----|
|---------------------------|-----|
  Play x 2

|---------------|
|---------------|
|-3--4--3--4--6-|
|---------------|
|---------------|
|---------------|
  Play x 8

|---------------|
|---------------|
|-6-0-----0---0-|
|-----1-----1---|
|---------------|
|---------------|
  Play x 2

|---------------|
|---------------|
|-3--4--3--4--6-|
|---------------|
|---------------|
|---------------|
  Play x 8

|----5-----1-----5--------1-|
|---------------------------|
|-7-----3-----7-----7--3----|
|---------------------------|
|---------------------------|
|---------------------------|
  Play x 2

Middle 8

|-----------|-------------------|-----------------------|------|
|-----------|-------------------|-----------------------|------|
|-8---3-3-4-|-4^---4^---4^---4^-|-17^---17^---17^---17^-|-17~~-|
|-9---4-4-5-|-------------------|-----------------------|------|
|-9---4-4-5-|-------------------|-----------------------|------|
|-7---2-2-3-|-------------------|-----------------------|------|
  Play x 4  | Play x 6          | Play x 2              |

Outro

|---------------|-----|
|---------------|-9~~-|
|-3--4--3--4--6-|-9~~-|
|---------------|-9~~-|
|---------------|-7~~-|
|---------------|-----|
  Play x 8      |






5 – Taken

Standard Tuning – E, A, D, G, B, E

Intro/Verse

|------------------|
|------------------|
|------------------|
|-5-5------5-5-----|
|-5-5-<5>--5-5-<5>-|
|-3-3-<5>--3-3-<5>-|
  Play x 16

Chorus

|----------------------------|
|----------------------------|
|----------------------------|
|-5-5-7--5-5-7-5--5-7--5-5-7-|
|-5-5-7--5-5-7-5--5-7--5-5-7-|
|-3-3-5--3-3-5-3--3-5--3-3-5-|
  Play x 4

|------------------|
|------------------|
|------------------|
|-5-5------5-5-----|
|-5-5-<5>--5-5-<5>-|
|-3-3-<5>--3-3-<5>-|
  Play x 16

|----------------------------|
|----------------------------|
|----------------------------|
|-5-5-7--5-5-7-5--5-7--5-5-7-|
|-5-5-7--5-5-7-5--5-7--5-5-7-|
|-3-3-5--3-3-5-3--3-5--3-3-5-|
  Play x 8
[ Tab from: http://www.guitaretab.com/h/helmet/47242.html ]
Middle 8

|------------------|
|------------------|
|------------------|
|-9-9------9-9-----|
|-9-9-<9>--9-9-<9>-|
|-7-7-<9>--7-7-<9>-|
  Play x 8

|------------------|
|------------------|
|------------------|
|-5-5------5-5-----|
|-5-5-<5>--5-5-<5>-|
|-3-3-<5>--3-3-<5>-|
  Play x 16

|----------------------------|
|----------------------------|
|----------------------------|
|-5-5-7--5-5-7-5--5-7--5-5-7-|
|-5-5-7--5-5-7-5--5-7--5-5-7-|
|-3-3-5--3-3-5-3--3-5--3-3-5-|
  Play x 8

Outro

|-----------0~~-|
|-----------0~~-|
|-----------0~~-|
|-9-9-9-9-9-9~~-|
|-9-9-9-9-9-9~~-|
|-7-7-7-7-7-7~~-|






6 – Your Head

Drop D Tuning – D, A, D, G, B, E

Intro

|---------------------------|-----|
|---------------------------|-0~~-|
|---------------------------|-0~~-|
|-<5><5><5><3>-<5><5><5><4>-|-3~~-|
|-<5><5><5><3>-<5><5><5><4>-|-3~~-|
|-<5><5><5><3>-<5><5><5><4>-|-3~~-|
  Play x 8                  |

Verse

|-----------------|
|-----------------|
|-----------------|
|-0---8-8-8-8-8-8-|
|-0---8-8-8-8-8-8-|
|-0---8-8-8-8-8-8-|
  Play x 12

Chorus

|--------------------------------------------|
|--------------------------------------------|
|--------------------------------------------|
|-12-12-12-12-12-12-12-12-14-1010101010101010|
|-10-10-10-10-10-10-10-10-12-8-8-8-8-8-8-8-8-|
|-10-10-10-10-10-10-10-10-12-8-8-8-8-8-8-8-8-|
  Play x 2

|-----------------|
|-----------------|
|-----------------|
|-0---8-8-8-8-8-8-|
|-0---8-8-8-8-8-8-|
|-0---8-8-8-8-8-8-|
  Play x 12

|--------------------------------------------|
|--------------------------------------------|
|--------------------------------------------|
|-12-12-12-12-12-12-12-12-14-1010101010101010|
|-10-10-10-10-10-10-10-10-12-8-8-8-8-8-8-8-8-|
|-10-10-10-10-10-10-10-10-12-8-8-8-8-8-8-8-8-|
  Play x 2

Middle 8

|-----------------|-----------------|------------------------|
|-----------------|-----------------|-0~~---11~~---1~~---2~~-|
|-----------------|-----------------|-0~~---11~~---0~~---2~~-|
|-0-0-0-2h3-2-2-5-|-0---8-8-8-8-8-8-|-0~~---11~~---0~~---2~~-|
|-0-0-0-2h3-2-2-5-|-0---8-8-8-8-8-8-|------------------------|
|-0-0-0-2h3-2-2-5-|-0---8-8-8-8-8-8-|------------------------|
  Play x 8        | Play x 4        |

|--------------------------------------------|
|--------------------------------------------|
|--------------------------------------------|
|-12-12-12-12-12-12-12-12-14-1010101010101010|
|-10-10-10-10-10-10-10-10-12-8-8-8-8-8-8-8-8-|
|-10-10-10-10-10-10-10-10-12-8-8-8-8-8-8-8-8-|
  Play x 2

Outro

|-----------------|-----|
|-----------------|-0~~-|
|-----------------|-0~~-|
|-0-0-0-2h3-2-2-5-|-5~~-|
|-0-0-0-2h3-2-2-5-|-5~~-|
|-0-0-0-2h3-2-2-5-|-5~~-|
  Play x 12       |






7 – Oven

Drop D Tuning – D, A, D, G, B, E

Intro
                           1|    2|        3|
|-----------------|---------|-----|---------|
|-----------------|---------|-----|---------|
|-----------------|---------|-----|---------|
|-0-0-0-0-0-0-0-0-|-0-7-0-7-|-0-7-|-0-7-0-6-|
|-0-0-0-0-0-0-0-0-|-0-7-0-7-|-0-7-|-0-7-0-6-|
|-0-0-0-0-0-0-0-0-|-0-7-0-7-|-0-7-|-0-7-0-6-|

Verse

|-----------------------|------------------------------|
|-----------------------|------------------------------|
|-----------------------|------------------------------|
|-0---0-0-6---0-0-0-7-0-|-0---0-0-6---0-0-0-0--0-0-0-0-|
|-0---0-0-6---0-0-0-7-0-|-0---0-0-6---0-0-0-0--0-0-0-0-|
|-0---0-0-6---0-0-0-7-0-|-0---0-0-6---0-0-0-0--0-0-0-0-|
  Play x 2              |

Guitars Tacet

Bridge

|------------------------------------------------------------|
|------------------------------------------------------------|
|------------------------------------------------------------|
|-0--6--6--0-0--0--0-6-0-0--0-6--6--6--0-0-0-0-0-0-0-0-0-0-0-|
|-0--6--6--0-0--0--0-6-0-0--0-6--6--6--0-0-0-0-0-0-0-0-0-0-0-|
|-0--6--6--0-0--0--0-6-0-0--0-6--6--6--0-0-0-0-0-0-0-0-0-0-0-|
 
Outro
                                                   1|        2|
|--------------------------------|------------------|---------|
|--------------------------------|------------------|---------|
|--------------------------------|------------------|---------|
|-0---0--0-0-3-2-3-2-3-2-3--2--6-|-0-0-0-0--0-0-0-0-|-0-0-0-0-|
|-0---0--0-0-3-2-3-2-3-2-3--2--6-|-0-0-0-0--0-0-0-0-|-0-0-0-0-|
|-0---0--0-0-3-2-3-2-3-2-3--2--6-|-0-0-0-0--0-0-0-0-|-0-0-0-0-|
 
                                                        3|
|--------------------------------------------------------|
|--------------------------------------------------------|
|--------------------------------------------------------|
|-0-0-0-0-0-0-0-0-0-0-0--0-0-0-0-0-0-0-0-0-0-0-0-0-0-0-0-|
|-0-0-0-0-0-0-0-0-0-0-0--0-0-0-0-0-0-0-0-0-0-0-0-0-0-0-0-|
|-0-0-0-0-0-0-0-0-0-0-0--0-0-0-0-0-0-0-0-0-0-0-0-0-0-0-0-|






8 – No Nicky No

Drop D Tuning – D, A, D, G, B, E

Intro

|--------------------|
|--------------------|
|--------------------|
|-------------0-2--3-|
|-----3p2-2h3-0-2--3-|
|-0-----------0-2--3-|
  Play x 4

Verse

|------|-------------------|-------------|
|-BASS-|-------------------|-------------|
|------|-------------------|-------------|
|------|-------------------|-0-3h4-0-3h4-|
|-ONLY-|-3h4-3h4-3h4-3h4---|-0-3h4-0-3h4-|
|------|-----------------0-|-0-3h4-0-3h4-|
       | Play x 12         | Play x 8

Chorus

|-------------------------------x/-----|
|-------------------------0~~---x/-----|
|-------------------------0~~---x/-----|
|-8-8-8-8-8-8-8-8-8-8-8-8-5~~------5~~-|
|-8-8-8-8-8-8-8-8-8-8-8-8-5~~------5~~-|
|-8-8-8-8-8-8-8-8-8-8-8-8-5~~------5~~-|

|--------------------|--------------------|
|--------------------|--------------------|
|--------------------|--------------------|
|-------------0-2--3-|-------------0-2--3-|
|-----3p2-2h3-0-2--3-|-----4p3-3h4-0-2--3-|
|-0-----------0-2--3-|-0-----------0-2--3-|
  Play x 2           | Play x 2

Outro

|-------------------------------------------------------------|
|-------------------------------------------------------------|
|-------------------------------------------------------------|
|-3-3-3-3-3-3-3-3-3-3-5-5-5-5-5-5-5-5-5-5-2-2-2-2-2-2-2-2-2-2-|
|-3-3-3-3-3-3-3-3-3-3-5-5-5-5-5-5-5-5-5-5-2-2-2-2-2-2-2-2-2-2-|
|-3-3-3-3-3-3-3-3-3-3-5-5-5-5-5-5-5-5-5-5-2-2-2-2-2-2-2-2-2-2-|
  Play x 2

|-------------|-----------------|-----|
|-------------|-----------------|-----|
|-------------|-----------------|-----|
|-2-2-2-2-2-2-|-8-8-8-8-8-8-8-8-|-0~~-|
|-2-2-2-2-2-2-|-8-8-8-8-8-8-8-8-|-0~~-|
|-2-2-2-2-2-2-|-8-8-8-8-8-8-8-8-|-0~~-|
  Play x 2    | Play x 8        |






9 – Primitive

Standard Tuning – E, A, D, G, B, E

Intro

|------|-0~~-|
|-BASS-|-0~~-|
|------|-1~~-|
|------|-2~~-|
|-ONLY-|-2~~-|
|------|-0~~-|

Verse

|-0-----------------|
|-0-----------------|
|-1---4-4-6-6-3-3-4-|
|-2-----------------|
|-2-----------------|
|-0-----------------|
  Play x 12

Chorus

|-----------------------------------------|
|-----------------------------------------|
|-----------------------------------4-4-5-|
|-7-7-7-7-7-7-7-7-7-7-7-5-5-5-4-4-4-4-4-5-|
|-7-7-7-7-7-7-7-7-7-7-7-5-5-5-4-4-4-2-2-3-|
|-5-5-5-5-5-5-5-5-5-5-5-3-3-3-2-2-2-------|

|-0-----------------|
|-0-----------------|
|-1---4-4-6-6-3-3-4-|
|-2-----------------|
|-2-----------------|
|-0-----------------|
  Play x 12

|-----------------------------------------|
|-----------------------------------------|
|-----------------------------------4-4-5-|
|-7-7-7-7-7-7-7-7-7-7-7-5-5-5-4-4-4-4-4-5-|
|-7-7-7-7-7-7-7-7-7-7-7-5-5-5-4-4-4-2-2-3-|
|-5-5-5-5-5-5-5-5-5-5-5-3-3-3-2-2-2-------|

Middle 8

|-0~~-|-12~~---14~~---16~~-|-<4>~~-|
|-0~~-|--------------------|-------|
|-1~~-|--------------------|-------|
|-2~~-|--------------------|-------|
|-2~~-|--------------------|-------|
|-0~~-|--------------------|-------|
      | Play x 5           |

|-0-----------------|
|-0-----------------|
|-1---4-4-6-6-3-3-4-|
|-2-----------------|
|-2-----------------|
|-0-----------------|
  Play x 8

Outro

|-----------------------------------------|
|-----------------------------------------|
|-----------------------------------4-4-5-|
|-7-7-7-7-7-7-7-7-7-7-7-5-5-5-4-4-4-4-4-5-|
|-7-7-7-7-7-7-7-7-7-7-7-5-5-5-4-4-4-2-2-3-|
|-5-5-5-5-5-5-5-5-5-5-5-3-3-3-2-2-2-------|






10 – Born Annoying (1993)

Drop D Tuning – D, A, D, G, B, E

Intro/Verse

|--------------------------------|----------------|
|--------------------------------|------------0-0-|
|--------------------------------|------------0-0-|
|-5-/3-5-/3-/6-6--5-/3-5-/3-/6-6-|-5-/3-5-/3-/6-6-|
|-5-/3-5-/3-/6-6--5-/3-5-/3-/6-6-|-5-/3-5-/3-/6-6-|
|-5-/3-5-/3-/6-6--5-/3-5-/3-/6-6-|-5-/3-5-/3-/6-6-|
  Play x 14                      | Play x 8

|--------------------------------|----------------|-----------------|
|--------------------------------|------------0-0-|-----------------|
|--------------------------------|------------0-0-|-----------------|
|-5-/3-5-/3-/6-6--5-/3-5-/3-/6-6-|-5-/3-5-/3-/6-6-|-6-6-6-6-6-6-6-6-|
|-5-/3-5-/3-/6-6--5-/3-5-/3-/6-6-|-5-/3-5-/3-/6-6-|-6-6-6-6-6-6-6-6-|
|-5-/3-5-/3-/6-6--5-/3-5-/3-/6-6-|-5-/3-5-/3-/6-6-|-6-6-6-6-6-6-6-6-|
  Play x 4                       | Play x 8       |

Chorus

|---------------------------------------|
|---------------------------------------|
|---------------------------------------|
|-2-2-x-x-0-2-2-x-x-0-2-2-x-x-0-2-2-3-0-|
|-2-2-x-x-0-2-2-x-x-0-2-2-x-x-0-2-2-3-0-|
|-2-2-x-x-0-2-2-x-x-0-2-2-x-x-0-2-2-3-0-|
  Play x 4

|--------------------------------|----------------|
|--------------------------------|------------0-0-|
|--------------------------------|------------0-0-|
|-5-/3-5-/3-/6-6--5-/3-5-/3-/6-6-|-5-/3-5-/3-/6-6-|
|-5-/3-5-/3-/6-6--5-/3-5-/3-/6-6-|-5-/3-5-/3-/6-6-|
|-5-/3-5-/3-/6-6--5-/3-5-/3-/6-6-|-5-/3-5-/3-/6-6-|
  Play x 14                      | Play x 8

|--------------------------------|----------------|-----------------|
|--------------------------------|------------0-0-|-----------------|
|--------------------------------|------------0-0-|-----------------|
|-5-/3-5-/3-/6-6--5-/3-5-/3-/6-6-|-5-/3-5-/3-/6-6-|-6-6-6-6-6-6-6-6-|
|-5-/3-5-/3-/6-6--5-/3-5-/3-/6-6-|-5-/3-5-/3-/6-6-|-6-6-6-6-6-6-6-6-|
|-5-/3-5-/3-/6-6--5-/3-5-/3-/6-6-|-5-/3-5-/3-/6-6-|-6-6-6-6-6-6-6-6-|
  Play x 4                       | Play x 8       |

Solo

|---------------------------------------|
|---------------------------------------|
|---------------------------------------|
|-2-2-x-x-0-2-2-x-x-0-2-2-x-x-0-2-2-3-0-|
|-2-2-x-x-0-2-2-x-x-0-2-2-x-x-0-2-2-3-0-|
|-2-2-x-x-0-2-2-x-x-0-2-2-x-x-0-2-2-3-0-|
  Play x 8

Outro

|---------|-----------------|
|---------|-----------------|
|---------|-GUITARS-GO-INTO-| 
|-2-2-3-0-|-----------------|
|-2-2-3-0-|-A-WALL-OF-NOISE-|
|-2-2-3-0-|-----------------|
 Play x 28|

And That's It.
Related for Born Annoying tab