Guitaretab - guitar tabs
Song name
# A B C D E F G H I J K L M N O P Q R S T U V W X Y Z

Helmet - See You Dead tab

see you dead    by helmet   album: size matters

drop c tuning: c-g-c-f-a-d (low to high)


verse
d-----------------------------------------|
a-------------------------------------7---|
f-------------------------------------6---|
c-------------------------------------0---|
g---5-5-5-5-5-5-5-5-55-5-5-5-5-5-5-5-5----|
c---0-0-0-0-0-0-0-0-00-0-0-0-0-0-0-0-0----|

[ Tab from: http://www.guitaretab.com/h/helmet/64945.html ]
chorus
d---0-0-0-0-0-0-0-0----------------------|
a---5-5-5-5-5-5-5-5-6-6-6-6-8-8-1o-1-----|o
f---5-5-5-5-5-5-5-5-7-7-7-7-7-7-1o-1-----|o
c---3-3-3-3-3-3-3-5-0-0-0-0-0-0-0-0------|     ...two times
g---3-3-3-3-3-3-3-5-0-0-0-0-0-0-0-0------|
c---3-3-3-3-3-3-3-5-0-0-0-0-0-0-0-0------|


d-------------------------------------------|
a---1o-1o-1o-1o-1o-1o-1o-1o-3-3-3-3-3-3-3-3-|
f---1o-1o-1o-1o-9--9--9--9------------------|
c---8--8--8--8--7--7--7--7--1-1-1-1-2-2-2-2-|
g---8--8--8--8--7--7--7--7--1-1-1-1-2-2-2-2-|
c---8--8--8--8--7--7--7--7--1-1-1-1-2-2-2-2-|


d-------------------------------------------|
a---1o-1o-1o-1o-1o-1o-1o-1o-6-6-6-6-6-6-6-6-|
f---1o-1o-1o-1o-9--9--9--9--7-7-7-7-7-7-7-7-|
c---8--8--8--8--7--7--7--7--5-5-5-5-5-5-5-5-|
g---8--8--8--8--7--7--7--7--5-5-5-5-5-5-5-5-|
c---8--8--8--8--7--7--7--7--5-5-5-5-5-5-5-5-|

the next chorus is a little bit different, but basically the same structure.
i hope you enjoy it!
Related for See You Dead tab