Song name
# A B C D E F G H I J K L M N O P Q R S T U V W X Y Z

Helmet - Rude tab

Band: Helmet
Song: Rude
Transcriber: Robert Johnstone
Standard tuning

This song was recorded at John Peel's Peel Sessions along with there other song Sinatra. 
got this song off the Amphetamine Reptile Peel sessions Cd

Intro (turn the amp up and hold this down so it gives a lot of feedback)
E-----------------|
B-----------------|
G-----------------|
D-----6-----------|
A-----6-----------|
E-----4-----------|

Riff 1
E---------------------------------------------------|
B---------------------------------------------------|
G---------------------------------------------------|
D----6-6-6-6-6-6-6-6-6-6-6-6-6-6-6-6----------------|
A----6-6-6-6-6-6-6-6-6-6-6-6-6-6-6-6----------------|
E----4-4-4-4-4-4-4-4-4-4-4-4-4-4-4-4----------------|

Riff 2
E---------------------------------------------|
B---------------------------------------------|
G---------------------------------------------|
D---6--6--6--6--6--6--8-----------------------|
A---6--6--6--6--6--6--8-----------------------|
E---4--4--4--4--4--4--6-----------------------|
               *        *

Riff 3/ chorus
(Rude...Rude...Rude...)
E--------------------------------------|
B--------------------------------------|
G--------------------------------------|
D---6-6-6-6-6-6-----5-5-5--------------|
A---6-6-6-6-6-6-----5-5-5--------------|
E---4-4-4-4-4-4-----3-3-3--------------|

That's all I know the solo I havnt worked out!
Tap to rate this tab
 
# A B C D E F G H I J K L M N O P Q R S T U V W X Y Z