Song name
# A B C D E F G H I J K L M N O P Q R S T U V W X Y Z

Helmet - Unsung tab

-------------------------------------------------------------------------------
			    Unsung - Helmet
-------------------------------------------------------------------------------
Tabbed by: Easporst017
Email:Easports017@yahoo.com

Tuning: standard tuning

     This is the solo at the end of the song, it is not very difficult, but it sounds 
sweet    enjoy!!


          Pre-solo
e|---------------------------------------------------------------------------|
B|---------------------------------------------------------------------------|
G|---------------------------------------------------------------------------|
D|---------------------------------------------------------------------------|
A|---------------------------------------------------------------------------|
E|---0----2-2---0--2--3------------0----2-2---0--2--3--5---------------------|

                play this 4 times^^

     then play these two before the actual solo     let them ring

e|---------------------------------------------------------------------------|
B|---------------------------------------------------------------------------|
G|---------------------------------------------------------------------------|
D|---------------------------------------------------------------------------|
A|---------------------------------------------------------------------------|
E|----------0-------------------2--------------------------------------------|

              pic slide into solo...

e|--3-3-3-3-3-3-3-3-5-5-5-5-5-5-5-5-8-8-8-8-8-8-8-8-10-10-10-10-10-10-10-10--|
B|---------------------------------------------------------------------------|
G|---------------------------------------------------------------------------|
D|---------------------------------------------------------------------------|
A|---------------------------------------------------------------------------|
E|---------------------------------------------------------------------------|

e|-10---10---10-10-10---10---10---10-10-10-10---10---10---10-10-10---10---10---10-10-10-10|
B|----------------------------------------------------------------------------------------|
G|----------------------------------------------------------------------------------------|
D|----------------------------------------------------------------------------------------|
A|----------------------------------------------------------------------------------------|
E|----------------------------------------------------------------------------------------|

e|-12-12-12-12-12-12-12-12-12-12-12-12-12-15-15-15-17-17-17-17-17-17-17-17-15--|
B|-----------------------------------------------------------------------------|
G|-----------------------------------------------------------------------------|
D|-----------------------------------------------------------------------------|
A|-----------------------------------------------------------------------------|
E|-----------------------------------------------------------------------------|

e|-15---15---15-15-15---15---15---15-15-15-15---15---15---15-15-15-----------|
B|---------------------------------------------------------------------------|
G|---------------------------------------------------------------------------|
D|---------------------------------------------------------------------------|
A|---------------------------------------------------------------------------|
E|---------------------------------------------------------------------------|

e|-15---15---15-15-15-15---15---15---15-15-15-15-15-15-15-15-15-15--|
B|------------------------------------------------------------------|
G|------------------------------------------------------------------|
D|------------------------------------------------------------------|
A|------------------------------------------------------------------|
E|------------------------------------------------------------------|

e|---------------------------------------------------------------------------|
B|---------------------------------------------------------------------------|
G|---------------------------------------------------------------------------|
D|---------------------------------------------------------------------------|
A|---------------------------------------------------------------------------|
E|-------0----2-2---0--2--3--------------------------------------------------|
Tap to rate this tab
# A B C D E F G H I J K L M N O P Q R S T U V W X Y Z