Guitaretab - guitar tabs
Song name
# A B C D E F G H I J K L M N O P Q R S T U V W X Y Z
Home / H / Helmet / Smart tab

Helmet - Smart tab

Song: Smart
Album: Size Matters
Artist: Helmet
Transcribed by: tituzz2 
Mail: walter_20xx@hotmail.com - vvalter

this is one of the best songs of HELMET... it's XTREME!!! 

Drop C Tuning  c,g,c,f,a,d

Note:   ^ -> staccato note

Intro:
|----------------------------------|
|----------------------------------|
|----------------------------------|
|-0-3-3-0-5-5-0-3^-0-3-3-0-6-6-5-6-|
|-0-3-3-0-5-5-0-3^-0-3-3-0-6-6-5-6-|
|-0-3-3-0-5-5-0-3^-0-3-3-0-6-6-5-6-|

Verse1:
|--------------------------------------------------------------------|
|--------------------------------------------------------------------|
|--------------------------------------------------------------------|
|-0-3-3-0-5-5-0-3^-0-3-3-0-5-5-0-3^-0-3-3-0-5-5-0-3^-0-3-3-0-6-6-5-6-|
|-0-3-3-0-5-5-0-3^-0-3-3-0-5-5-0-3^-0-3-3-0-5-5-0-3^-0-3-3-0-6-6-5-6-|
|-0-3-3-0-5-5-0-3^-0-3-3-0-5-5-0-3^-0-3-3-0-5-5-0-3^-0-3-3-0-6-6-5-6-|

|----------------------------------------------------------------------------|
|----------------------------------------------------------------------------|
|----------------------------------------------------------------------------|
|-0-3-3-0-5-5-0-3^-0-3-3-0-5-5-0-3^-0-3-3-0-5-5-0-3^-0-3-3-0-6-6-5-0-3-0-5-3-|
|-0-3-3-0-5-5-0-3^-0-3-3-0-5-5-0-3^-0-3-3-0-5-5-0-3^-0-3-3-0-6-6-5-0-3-0-5-3-|
|-0-3-3-0-5-5-0-3^-0-3-3-0-5-5-0-3^-0-3-3-0-5-5-0-3^-0-3-3-0-6-6-5-0-3-0-5-3-|
[ Tab from: http://www.guitaretab.com/h/helmet/88385.html ]
Verse2:
|-------------|------|-------------|------|
|-------------|-4--4-|-------------|-4--4-|
|-------------|-3--3-|-------------|-3--3-|
|-3--0--6^-0--|-2--1-|-3--0--6^-0--|-1--2-|
|-3--0--6^-0--|-2--1-|-3--0--6^-0--|-1--2-|
|-3--0--6^-0--|-2--1-|-3--0--6^-0--|-1--2-|
  Play x 5    |      | Play x 5

Chorus:
|----------------------------------------------------------------------|
|-6-6-6-6-6-6-6-6------3-3-3-3-3-3-3-3-4-4-4-4-4-4-4-4-5-5-5-5-5-5-5-5-|
|-5-5-5-5-5-5-5-5------2-2-2-2-2-2-2-2-3-3-3-3-3-3-3-3-4-4-4-4-4-4-4-4-|
|-3-3-3-3-3-3-3-3-/6-5-0-0-0-0-0-0-0-0-1-1-1-1-1-1-1-1-2-2-2-2-2-2-2-2-|
|-3-3-3-3-3-3-3-3-/6-5-0-0-0-0-0-0-0-0-1-1-1-1-1-1-1-1-2-2-2-2-2-2-2-2-|
|-3-3-3-3-3-3-3-3-/6-5-0-0-0-0-0-0-0-0-1-1-1-1-1-1-1-1-2-2-2-2-2-2-2-2-|
  Play x 2

Verse*
|------------------------|---------------------------------|
|------------------------|-----4-4-----4-4-----4-4-----4-5-|
|------------------------|-----3-3-----3-3-----3-3-----3-4-|
|-3--0--6^-0--3--0--6^-0-|-0-0-1-1-0-0-1-1-0-0-1-1-0-0-1-2-|
|-3--0--6^-0--3--0--6^-0-|-0-0-1-1-0-0-1-1-0-0-1-1-0-0-1-2-|
|-3--0--6^-0--3--0--6^-0-|-0-0-1-1-0-0-1-1-0-0-1-1-0-0-1-2-|

Solo:
|-----------------------------------------------------------------------------|
|-16161616161616161616-15151515151515151515-16161616161616161616-171717171717-|
|-----------------------------------------------------------------------------|
|-----------------------------------------------------------------------------|
|-----------------------------------------------------------------------------|
|-----------------------------------------------------------------------------|


GUITAR1	  GUITAR2
Intro
Verse1                                      ISABEL
Verse2                                        TE
Chorus                                         AMO...!!
Chorus
Verse1
Verse1
Verse2
Verse*
Chorus
Chorus
Chorus	   Solo
Chorus	   Solo
Verse1
Verse1

that's all .. any questions, doubts or whatever... write me 

THE END
Related for Smart tab