Helms Alee - Left Handy Man Handle tab

-------------------------------------------------------------------------------
			     Left Handy Man Handle - Helms Alee
-------------------------------------------------------------------------------
Tabbed by: DPL
Email: nizibian@gmail.com
Band's website: http://www.myspace.com/helmsaleemusic

Tuning: Standard (EADGBe)


Intro:
e|---------------------------------------------------------------------------|
B|---------------------------------------------------------------------------|
G|---------------------------------------------------------------------------|
D|---------------------------------------------------------------------------| x4
A|-4-------4-------4-------4-------------------------------------------------|
E|---3-2-0---3-2-0---3-2-0---3-2---------------------------------------------|


Verse 1:
e|---------------------------------------------------------------------------|
B|---------------------------------------------------------------------------|
G|---------------------------------------------------------------------------|
D|-----------------------------2-------2-----2-------2-----------------------| 
A|-4-------4-----4-------4---------------------------------------------------|
E|---3-2-0---3-2---3-2-0---3-2---3-2-0---3-2---3-2-0---3-2-------------------|
                                                                               x3
e|---------------------------------------------------------------------------|
B|---------------------------------------------------------------------------|
G|-3-------3-----3-------3-----0-------0-----0-------0-----------------------|
D|---------------------------------------------------------------------------|
A|---------------------------------------------------------------------------|
E|---3-2-0---3-2---3-2-0---3-2---3-2-0---3-2---3-2-0---3-2-------------------|


Chorus: (use a whammy bar for the vibrato after each group of notes, preferably a Bigsby)
e|---------------------------------------------------------------------------|
B|-----3-----------------5--------7------------------------------------------|
G|---4--------4-6--------5--------4------------------------------------------|
D|-5--------4----------7-7------5-5------------------------------------------| x2
A|-------------------0-------------------------------------------------------|
E|----------------------------0----------------------------------------------|


Verse 2:
e|---------------------------------------------------------------------------|
B|---------------------------------------------------------------------------|
G|---------------------------------------------------------------------------|
D|-----------------------------2-------2-----2-------2-----------------------| 
A|-4-------4-----4-------4---------------------------------------------------|
E|---3-2-0---3-2---3-2-0---3-2---3-2-0---3-2---3-2-0---3-2-------------------|
                                                                               x2
e|---------------------------------------------------------------------------|
B|---------------------------------------------------------------------------|
G|-3-------3-----3-------3-----0-------0-----0-------0-----------------------|
D|---------------------------------------------------------------------------|
A|---------------------------------------------------------------------------|
E|---3-2-0---3-2---3-2-0---3-2---3-2-0---3-2---3-2-0---3-2-------------------|


Chorus: (use a whammy bar for the vibrato after each group of notes, preferably a Bigsby)
e|---------------------------------------------------------------------------|
B|-----3-----------------5--------7------------------------------------------|
G|---4--------4-6--------5--------4------------------------------------------|
D|-5--------4----------7-7------5-5------------------------------------------| x2
A|-------------------0-------------------------------------------------------|
E|----------------------------0----------------------------------------------|


Outro: (use a whammy bar for the vibrato after each group of notes, preferably a Bigsby)
e|---------------------------------------------------------------------------|
B|-----3--5-3---------5--------5-5-------------------------------------------|
G|---4-----------4-6----6------5---5-----------------------------------------|
D|-5-----------4-------------7-7---------------------------------------------| x1
A|-------------------------0---------(7)-------------------------------------|
E|------------------------------------0--------------------------------------|


************************************

| /   slide up
| \   slide down
| h   hammer-on
| p   pull-off
| ~   vibrato
| +   harmonic
| x   Mute note
| b   Bend
| pb  Pre-bend
| br  Bend release
| pbr Pre-bend release
| brb Bend release bend

************************************
Tap to rate this tab
 
# A B C D E F G H I J K L M N O P Q R S T U V W X Y Z