Song name
# A B C D E F G H I J K L M N O P Q R S T U V W X Y Z

Helstar - Burning Star tab

“Burning Star” by Helstar
-----------------------------------------------------------------
Tabbed by: Felipe Ayala
Email: fayala34@hotmail.com
Tuning: E A D G B E
                      GUITAR 1
    A
E|--------------------------------------------------------------------|
B|--------------------------------------------------------------------|
G|--2----------------------2------------------------2-----------------|
D|--2----------------------2------------------------2-----------------|
A|--0--------------------3-0------------------------0-----------------|
E|------------------------------------------------3-------------------|

                      GUITAR 2
              M    u    t    e      d
E|------------------------------------------------------------------------|
B|------------------------------------------------------------------------|
G|-------4--5--2-4-0--2---------4--5--2---4-0--2---------4--5-2-4-0-2-----|
D|---------2--2-2-2--2-2-0-2-2----2--2--2--2--2-2 0 2 2----2-2-2-2-2-2----|
A|------------------------------------------------------------------------|
E|------------------------------------------------------------------------|

                      GUITAR 1
                         D                    A
E|-----------------------------------------------------------------|
B|-----------------------------------------------------------------|
G|--2--------------------7--------------------2--------------------|
D|--2--------------------7--------------------2--------------------|
A|3-0------------------3-5--------------------0--------------------|
E|-----------------------------------------------------------------|

                      GUITAR 2
E|------------------------------------------------------------------|
B|------------------------------------------------------------------|
G|-------4--5-2-4-0-2--------4-5-2-4-0-2------2---------------------|
D|0-2-2---2--2-2-2-2-2-0-2-2--2-2-2-2-2-2-0-2-2---------------------|
A|--------------------------------------------0---------------------|
E|------------------------------------------------------------------|

   (   P A T T E R N   “A”   )  (            P  A  T  T  E  R  N     “ B”              )
  :26  4 TIMES-- BOTH GUITARS)  I see a new star rising   (:46       O N C E    D#D C B
E|------------------------------( 3   T I M E S       )----------------------------------|
B|---------------------------------------------------------------------------------------|
G|------------------------8--7------------------------8-7-----------------------8-7-5-4--|
D|-----2-----3-----2------8--7------------------------8-5-----------------------8-7-5-4--|
A| 0-3---0-3---0-3--0-3-0-6--5---0 0-0-0-0-0-0-0-0-0-06-5--0-0-0-0-0-0-0-0-0-0-06-5-3-2--|
E|---------------------------------------------------------------------------------------|

  . .HOT WINDS BLOWING ON YOU, WORLD’S SPINNING ROUND…..
E|-----------------------------------------------------------------|
B|-----------------------------------------------------------------|
G|-        REPEAT PATTERN “B” :49 THRU 1:00------------------------|
D|-----------------------------------------------------------------|
A|-----------------------------------------------------------------|
E|-----------------------------------------------------------------|

  (               P  A  T  T  E  R  N    “C”
   1:01
GOING DOWN IN FIRE…..                  C# Bb                  Bb  A
E|-------------------------------------------------------------------------------|
B|- -----------------------------------------------------------------------------|
G|------------------------------------- 6-3--------------------------------------|
D|----------------8-7-------------------6-3------------------- 8-7---------------|
A|----------------8-7-------------------4-1------------------- 8-7---------------|
E|-0-0-0-0-0-0-0-06-5-3--0-0-0-0-0-0-0-0----3--0-0-0-0-0-0--0-06-5---3-----------|

End of Pattern “C”  )        ( P a t t e r n   “A”  )
                C# BbA             1:13 thru 1:24
E|--------------------------------------------------------------------------|
B|--------------------------------------------------------------------------|
G|---------------6-3-2------------------------------------------------------|
D|---------------6-3-2------------------------------------------------------|
A|---------------4-1-0------------------------------------------------------|
E|0-0-0-0-0-0-0-0------3----------------------------------------------------|

    P a t t e r n   “B”           P a t t e r n   “C”
     1:25 thru 1:47                  1:48 thru 2:00
  ….On a path of destruction….      Going down in fire…
E|---------------------------------------------------------------|
B|---------------------------------------------------------------|
G|---------------------------------------------------------------|
D|---------------------------------------------------------------|
A|---------------------------------------------------------------|
E|---------------------------------------------------------------|

  P a t t e r n   “A”        P a t t e r n    “D”  (partly muted) 4 times
   2:01 thru 2:11                    2:12 thru 2:35
                                 Rhythm for lead break     D C#                G A
E|-----------------------------------------------------------------------------------|
B|-----------------------------------------------------------------------------------|
G|---------------------------------------------------------7-6-----------------------|
D|--------------------------h---------------h--------------7-6-----------------5-7---|
A|-------------------------0^2-2-2-2-2-2-2-0^2-2-2-2-2-2-2-5-4-0^2-2-2-2-2-2-2-5-7---|
0E|----------------------------------------------------------------------------3-5---|


    PATTERN “E”    SECOND PART OF LEAD BREAK(TWO GUITAR HARMONIES)
  2:36 THRU 2:47            GUITAR 1    4 TIMES
E|---------------------------------------------------------------------|
B|- 10-9-- 8-7----- 10-9-- 8-7-----------------------------------------|
G|9---- 10--- 6-7-9----  9---------------------------------------------|
D|---------------------------------------------------------------------|
A|---------------------------------------------------------------------|
E|---------------------------------------------------------------------|

                            GUITAR 2    4 TIMES
E|-----------------------------------------------------------------------|
B|121716--1514----121716121514-------------------------------------------|
G|------12----1415-------------------------------------------------------|
D|-----------------------------------------------------------------------|
A|-----------------------------------------------------------------------|
E|-----------------------------------------------------------------------|
Tap to rate this tab
 
# A B C D E F G H I J K L M N O P Q R S T U V W X Y Z