Song name
# A B C D E F G H I J K L M N O P Q R S T U V W X Y Z

Hemlock - Raze To The Ground tab

--------------------------------------------------------------------------
			     Raze To The Ground - Hemlock
--------------------------------------------------------------------------
Tabbed by: jtom#11
Email: jtom2@rmusd.net

Tuning: DADGBE
 

| U  up stoke
| D  down stroke
| /  slide up
| \  slide down
| h  hammer-on
| p  pull-off
| ~  vibrato
| +  harmonic
| x  Mute note
| >  let string ring




(intro)                             
(0.02)(4x)                 # on the 3rd and 4th time the 2nd guitar plays 
                           this]       
e|-------------------------|--------------------------------|
B|-------------------------|--18-18-18-18-18----------------|
G|-------------------------|--17-17-17-17-17----------------|
D|--1>--0>--1>-/-6>--------|--15----------------------------|
A|--1>--0>--1>-/-6>--------|--------------------------------|
D|--1>--0>--1>-/-6>--------|--------------------------------|
                              D  U  D  U  D 
(Verse)
(0.22)(2x)

e|----------------------------------------------------------------|
B|----------------------------------------------------------------|
G|----------------------------------------------------------------|
D|--1-1-1-1--0-----1-1-1-1--0-----1-1-1-1--0-----1-1-1-1-/-6>-----|
A|--1-1-1-1--0-----1-1-1-1--0-----1-1-1-1--0-----1-1-1-1-/-6>-----|
D|--1-1-1-1--0-----1-1-1-1--0-----1-1-1-1--0-----1-1-1-1-/-6>-----|
    . . . .        . . . .        . . . .        . . . .


(0.32)(2x)

e|----------------------------------------------|
B|----------------------------------------------|
G|----------------------------------------------|
D|--1111000011110000111100001111-/--6>----------|
A|--1111000011110000111100001111-/--6>----------|
D|--1111000011110000111100001111-/--6>----------|
    ............................


(0.43)(4X)                 # on the 3rd and 4th time the 2nd guitar plays 
(chorus)                   this]                                          

e|-------------------------|--------------------------------|
B|-------------------------|--18-18-18-18-18----------------|
G|-------------------------|--17-17-17-17-17----------------|
D|--1>--0>--1>-/-6>--------|--15----------------------------|
A|--1>--0>--1>-/-6>--------|--------------------------------|
D|--1>--0>--1>-/-6>--------|--------------------------------|
                              D  U  D  U  D 


(1.03)(2x)

e|----------------------------------------------------------------|
B|----------------------------------------------------------------|
G|----------------------------------------------------------------|
D|--1-1-1-1--0-----1-1-1-1--0-----1-1-1-1--0-----1-1-1-1-/-6>-----|
A|--1-1-1-1--0-----1-1-1-1--0-----1-1-1-1--0-----1-1-1-1-/-6>-----|
D|--1-1-1-1--0-----1-1-1-1--0-----1-1-1-1--0-----1-1-1-1-/-6>-----|
    . . . .        . . . .        . . . .        . . . .


(1.13)(2x)

e|----------------------------------------------|
B|----------------------------------------------|
G|----------------------------------------------|
D|--1111000011110000111100001111-/--6>----------|
A|--1111000011110000111100001111-/--6>----------|
D|--1111000011110000111100001111-/--6>----------|
    ............................



                           # on the 3rd and 4th time the 2nd guitar plays 
(1.23)(4x)                 this]                                          

e|-------------------------|--------------------------------|---------|
B|-------------------------|--18-18-18-18-18----------------|---------|
G|-------------------------|--17-17-17-17-17----------------|---------|
D|--1>--0>--1>-/-6>--------|--15----------------------------|--0>-----|
A|--1>--0>--1>-/-6>--------|--------------------------------|--0>-----|
D|--1>--0>--1>-/-6>--------|--------------------------------|--0>-----|
                              D  U  D  U  D                    .

 

(1.43)(12x)
                                               
#This is also the rhythm for
the little solo
                  #after each 6th time play this      
e|----------------|-----------------|
B|----------------|-----------------|
G|------5-----6---|--5----5----5----|
D|----5-----6-----|--5--5----5------|
A|--3-----4-------|--3--------------|
D|----------------|-----------------|



(2.04)(little Solo)          (2.14)

e|--------------------------|--------------------------------|------------|
B|--------------------------|--------------------------------|------------|
G|--/-17~---15h17-15-13-12~-|--17-15-18-17--15/13-13/12--12~-|-17-15-18-17~|
D|--------------------------|--------------------------------|------------|
A|--------------------------|--------------------------------|------------|
D|--------------------------|--------------------------------|------------|



(2.14)(6x) This is the 2nd part for the rhythm

e|---------------------------|
B|---------------------------|
G|----------5----------6-----|
D|--------5----------6-------|
A|--33333------44444---------|
D|---------------------------|



                           # on the 2nd time the 2nd guitar plays 
(2.34)(2x)                     this]  

e|-------------------------|--------------------------------|
B|-------------------------|--18-18-18-18-18----------------|
G|-------------------------|--17-17-17-17-17----------------|
D|--1>--0>--1>-/-6>--------|--15----------------------------|
A|--1>--0>--1>-/-6>--------|--------------------------------|
D|--1>--0>--1>-/-6>--------|--------------------------------|
                              D  U  D  U  D 


(2.44)(2x)

e|----------------------------------------------------------------|
B|----------------------------------------------------------------|
G|----------------------------------------------------------------|
D|--1-1-1-1--0-----1-1-1-1--0-----1-1-1-1--0-----1-1-1-1-/-6>-----|
A|--1-1-1-1--0-----1-1-1-1--0-----1-1-1-1--0-----1-1-1-1-/-6>-----|
D|--1-1-1-1--0-----1-1-1-1--0-----1-1-1-1--0-----1-1-1-1-/-6>-----|
    . . . .        . . . .        . . . .        . . . .


(2.54)(2x)

e|----------------------------------------------|
B|----------------------------------------------|
G|----------------------------------------------|
D|--1111000011110000111100001111-/--6>----------|
A|--1111000011110000111100001111-/--6>----------|
D|--1111000011110000111100001111-/--6>----------|
    ............................



(3.04)                     # on the 3rd and 4th time the 2nd guitar plays 
(chorus)                    this]             (3.21)                            

e|-------------------------|------------------|-------------------------|
B|-------------------------|--18-18-18-18-18--|--181818181818181818-----|
G|-------------------------|--17-17-17-17-17--|--171717171717171717-----|
D|--1>--0>--1>-/-6>--------|--15--------------|--15---------------------|
A|--1>--0>--1>-/-6>--------|------------------|-------------------------|
D|--1>--0>--1>-/-6>--------|------------------|-------------------------|
                              D  U  D  U  D      Strum on this part.

(3.24)
let ring till end of song

e|---------|
B|---------|
G|---------|
D|--0>-----|
A|--0>-----|
D|--0>-----|



Check out Hemlock website at hemlockworld.com

Thats it, not perfect but there you have it!!!!!!!!!!!
Tap to rate this tab
# A B C D E F G H I J K L M N O P Q R S T U V W X Y Z