Song name
# A B C D E F G H I J K L M N O P Q R S T U V W X Y Z

Hendrix Jimi - The Star Spangled Banner tab

The Star Spangled Banner
By: Francis Scott Key
Preformed By: Jimi Hendrix
Tabbed By: Andrew   Enjoy!

Standard Tuning, Vibrato=~~~~~~



      ~~~~~       ~~~~~~~~~~~~~~~~~~~~~        ~~~    ~~~~~~~~~~~~  
 e[-----------0-------------------------4--2-0---------------------]e
 B[-0-------0-----9--7-5-----------------------4--2-4-5-5----------]B
 G[---1---1---------------1--3--4---4-4--------------------4--1----]G
 D[-----2--------------------------------------------------------2-]D
 A[----------------------------------------------------------------]A
 E[----------------------------------------------------------------]E
 
 
        ~~~~~~~~~~~~~~~~~~~~~~~~~~~~~~~~       ~~~    ~~~~~~~~~~~~
 e[-------------------------------------4--2-0---------------------]e
 B[------------5---9--7-5----------------------4--2-4-5-5----------]B
 G[-4-1---1-4--------------1--3--4---4-4-------------------4--1----]G
 D[-----2--------------------------------------------------------2-]D
 A[----------------------------------------------------------------]A
 E[----------------------------------------------------------------]E
 
 
    ~~~~~~~~~~~~~~~~~~~~~~~~~~~~~~~~~~    ~~~~    ~~~~~~   ~~~~~ 
 e[-4-4-4-5-7-7---5-4-2-4-5-5---5-4---2-0--------------------------]e
 B[---------------------------------------4---2-4-5----------------]B
 G[--------------------------------------------------1--3--4----4--]G
 D[----------------------------------------------------------------]D
 A[----------------------------------------------------------------]A
 E[----------------------------------------------------------------]E
 
 
      ~~~~~~~~~~~~          ~~~~~~~~    ~~~      ~~~~    ~~~~~~~~
 e[---------------2--5-4-2-----------------2-4-5-7---0-2-4--5-2--0-]e
 B[-5-5-5/4-2-2-2-----------5--5/4------5--------------------------]B
 G[---------------------------------4-4----------------------------]G
 D[----------------------------------------------------------------]D
 A[----------------------------------------------------------------]A
 E[----------------------------------------------------------------]E
Tap to rate this tab
# A B C D E F G H I J K L M N O P Q R S T U V W X Y Z