Song name
# A B C D E F G H I J K L M N O P Q R S T U V W X Y Z

Hendrix Jimi - Little Wing tab

Help us improve GuitareTab! Take a short survey!
Alright folks, here's a sweet Hendrix tune (my favorite)
Now the way i'm tabbing it is not how he played it. this how I play it and it
sounds close enough and i figure why copy someone's exact work. 

Here we go! we're in standard tuning

  Em7   (slide down)                       G                  A

E--X--12\---x-x----------------------------3-----------------------------
B--X--12\---x-x----------------------7-----3---------------------5-------
G--X--12\---x-x----------------7--9--7-----4---5-4-5-4-5-4-------5-------
D-----------x-x---------7---9--7--9--------5---5-5-5-5-5---5-----5-------
A-----------x-x--7--10--7--10--------------5---------------------x-------
E---------0-x-x--7--10------------------3--3------------------5--5-------
  
                                    Em7  
   
E--------------------------------------------------------------------------
B--5-----------------------------5-----8----------------------7--8s10--8---
G--5h7-5------5------------------5-----7----------------7--9--7--9s11--9---
D--5------5h7-5-5---5------5-----5-----9---------7---9--7--9---------------
A---------5-----5h7--------5-5h7-------7--7--10--7--10---------------------
E----------------------5-8----------0-----7--10----------------------------

  Bm7                    Bbm7   Am7                C (ring)
       
E---------------------------------------------------------------------
B-----7---7----7------------6----5--5----5--5-5-5---------------------
G-----7---7h9--7--7-7-7-----6----5--5h7--5--5-5-5--5--5---------------
D-----7----------11-9-7-----6----5----------9-7-5--3--2---------------
A-----x---------------------x----x-----------------------3------------
E--7--7------------------6--6----5------------------------------------

    G             F        C          D                    Harm. and bend the neck       
           
E-------5s7--5--5s3----3---3-3--3-3---5-5-5--5--5-5-5--5---(12)-------
B-------3s5--3--3s1----1---5-5--5-5---7-7-7--7--7-7-7--7---(12)-------
G--------------------------5-5--5-5---7-7-7--7--7-7-7--7---(12)-------
D-------5s7--5--5s3----3---5-5--5-5---7-7-7--7--7-7-7--7---(12)-------
A--------------------------3-3--3-3---5-5-5--5--5-5-5--5--------------
E---3----------------1------------------------------------------------


throughout the rest of the song its just picking notes 
off of those chords above tablature HAVE FUN!

Thats pretty much it 
DO YOU LIKE! 
email if u do or any questions - adamp328@hotmail.com

PEACE OUT
Related for Little Wing tab