Song name
# A B C D E F G H I J K L M N O P Q R S T U V W X Y Z

Hendrix Jimi - Machine Gun tab

MACHINE GUN BY JIMI HENDRIX (part 2)
transcribed by Maxxdaddy


Fuzz face off
-----------------------------------------------------------------------------------------
-----------------------------------------------------------------------------------------
--------------------------7-9------------------7-9-----------------7--9------------------
-0t2--2-0h2------------x---------------5--------------------------------------------5----
-----------------------------------5-----7~----------5(6)-7~----7-------0-------5-----7~-
-0----0------0--0--0-----------5h7---7------0------0----------0-----------3/5/7---7------

------------------------------------------------------------------------------------
------------------------------------------------------------------------------------
-------7----------------------------------------------------------------------------
-------9-------------------------------7-5~-------------------------5---------------
--------------7-----7------7--7--7--7----------5---7-7-----7--7---------------------
-0--0-----0-0-0--0--0---0--0-----------------7---0-0-0--0--0-----0--0--5h7--3h5-3p0-

-----------0--------------------------------------------------------------------------
------0----0-3-0-----------2p0-----------------------0-0------------------------------
------2(4)-0-----2(4)2p0---2p0--1--------------------1-1--1---1/4--4--4--4--4---4--4\-
-2-------------------------2p0--2------2------0h2----2----2p0------x--x--x--x---x--x--
-------------------------2--------2---------------------------2/5--5--5--5--5---5--5\-
---0--------------------------------0----3(4)-----0-----------------------------------

-/4-4-4-4-4-4-4-4-0-0-0-0-4-4-4-4-4-4-4-4-4-4-4-4-4-4-4-4-7/17-\7/-19\--------------------
-/3-3-3-3-3-3-3-3-0-0-0-0-3-3-3-3-3-3-3-3-3-3-3-3-3-3-3-3-6/16-\6/-18\--------------------
-/4-4-4-4-4-4-4-4-4-4-4-4-4-4-4-4-4-4-4-4-4-4-4-4-4-4-4-4-7/17-\7/-19\--1-----0---3/5-3p0-
------------------------------------------------------------------------2--2--0-2---------
------------------------------------------------------------------------2-----------------
------------------------------------------------------------------------0-----------------

-------0---3/5-3-----------------0------------------------------------0-------------------
-0-----0------------5-3-5p3p0----0-3-3(5)3p0---------------------0------3-----------------
-1--1-------------x-----------1---------------2(4)2-0~---1--2(4)-2(4)-----3(4)3p0-2p0---0-
-2----------------------------2--------------------------2----------------------------2-0-
-2----------------------------2--------------------------2--------------------------------
-0----------------------------0------------------------0----------------------------------

-5(7)5p3-5-3~-----------------------------------------------------------3h5-3h5p3p0-
-5(7)5--------5p3p0-3--5p3p0---3(5)3p0--------------------3-3(5)3p0---------------0-
---------------------------------------2(4)-0h2p0----1------------------------------
-----------------------------------------------------2-2-------------2--------------
---------------------------------------------------------------------2--------------
-----------------------------0-------0------------0--0---------------0--------------

--------------0-------------------------------------------0----------------------12---
---3--3(5)3p0-----3----------------------3-----3--3-----3-3---14-----12-12-12-12-12-0-
--------------------2(4)2p0--2--0--0h2---2(4)--2--2(4)--2-----14p12--12-12-12-12-12-0-
------------------------------------------------------------------------12-12-12------
--------------------------------------------------------------------------------------
-0--------------0-----------------------0---------------------------------------------

-------------------------------------------------------------------------------------------
--------------------------------------------12-12-12-12--12-12-12-12---------0-------0-----
-------------------------------0------------12-12-12-12--12-12-12-12--0--------------12h14-
-------------------------------0--14p12h14---------------------------------0----2----------
-0--------------0----------0h2----0--------------------------------------------------------
---0-0-0-0----0---0-0-0-0-----------------------------------------------0---------0--------

---------------12-12-----------------------------------------------------------0--0--0--
-12------------12-12-12-12-12-12-12-12----------12------12--12--0--0--0--0--0--0--0--0--
-12------------------12-12-12-12-12-12----------12------12--12--14-14-14-14-14-14-14-14-
-----14-12------------------------------12--14--14--14--14--14--------------------------
-----------14---------------------------------------14----------------------------------
-----------0--------------------------------0---0---------------------------------------

-0--------------------------------------------------------------------------
-0----------------------------0-----------0-\\\\--/-/-/-/-\\-\-\-/-/--/-\-\-
---14\-\--\\--/--//--\-\-/--9-0--0--0-\-\-0-\\\\--/-/-/-/-------------------
----------------------------------------------------------------------------
----------------------------------------------------------------------------
----------------------------------------------------------------------------

----------------------------------------------------------------------------------------
------------------------------0-\-\-\\\-\-//-/-/----13--0-\\-//-------------------------
------------------------------0-\-\-\\\-\-//-/-/----------------------------------------
-0-\-\-\-//--/--\-\-\-//-/-/-------------------------------------------------0--0--0--0-
-----------------------------------------------------------------14--14-14--12-12-12-12-
------------------------------------------------------------------0---0--0--14-14-14-14-

-------------------------------------------0\\\\-----------------------------------
-------------------------------------------0\\\\-----------------------------------
-------------------------------------------0\\\\--------------12----12-------------
-------------------------------------------0\\\\-----------12----12----0\\//\\//\\-
-----------------12p0\\//\\//---x-x-x-x----0\\\\--/17------------------------------
-12-12-x-x-x-x-x---------------------------0\\\\-------/12-------------------------

------------------0-----0---------------------------------------------------------------
-0--0\\\///\\\----0-----0-------------------------------15\\--------12------------------
------------------0-----0-------------------------------------------12------------------
------------------0-----0---------------------0---------12\\------------0\\\//////\\\\\-
------------------0-----0------0--------------0-----------------------------------------
---------------12-0--15-0---0--0---x-x-x-x-x--0\\\\\////-----x-x-x-x--------------------

------------------------------------------------------------------------------------
-------------------------------------------------------------------12---------------
---------------------------------------12----12--------------------12------------12-
--------------0\\\\\\\\0------------------12-12----12h14p12~-14p12-12--x12-12-12-12-
-----------------------0------------------------12------------------x------------0--
-x-x-x--x-x-x----------0--x-xx-x--xx-x----------12-----------------12---------------

-------------------------------------------------------------------------------------
-------------------------------------------------------------------------------------
-------------------12----------------------------------------------------------------
-12t14~~-14p12-x-x-12--12t14-----------0\\\///\\\////\\\\//\\\///\\//\\//\\//\\//\\/-
--------------------0----------------------------------------------------------------
-----------------------------x-x-x-x-x-----------------------------------------------

------------3-------------------------------------------------------------------------
-0------------------------------------------------------------------------------------
-------7/9------12h13h14--16p14p12-14p12p11h12p11~~12~-14~-12~------------------------
----0----------------------------------------------------------14~-12~-12~-12-----12~-
------------------------------------------------------------------------------14~-----
--------------3-----------------------------------------------------------------------

--------------------------------------------------------------14~-------------------------
---------------------------------------------------12~15~-12~---------14~-----------------
------------------------------------------------------------------14~-----12~-14~---------
-14~-12~14~-12~-----12~-14~p12~---------------------------------------------------12~-14~-
----------------14~-------------14p12~p1012h14~-------------------------------------------
------------------------------------------------12----------------------------------------

----------------------------------------------------------------------------
--------------------------------------------------------------------------1-
----------------------------------------------------------------------------
----------------------------------------------------------------------------
-12~-14~p10~h12~-10h12~-10~-9~-7/9\5~-5\\\\///\\//\\//\\//\\/\\//\\///\/\\--
----------------------------------------------------------------------------

-----------------------------------------------------------------------------------------
---------------------------------------15(17)\7-15(17)~~~~~~~~~~~~-15--------------------
-------------------------------------------------------------------15-15\\\///15-x-x-x-x-
-----------------------------------------------------------------------------------------
-----------------------------------------------------------------------------------------
-x-x--x-x-x---x-x-x-x-x-x-x--13-12-10----------------------------------------------------

---------------------------------------------------/16-16-16-16----------------
---------------------------------------------------/16-16-16-16----17-17-17-17-
-0\\\//////\\\\\\\\\/\\\\\\\\//\\\\\\\\\\\\///////-/16-16-16-16----17-17-17-17-
-0-------------------------------------------------/14-14-14-14----16-16-16-16-
-0-------------------------------------------------/15-15-15-15----15-15-15-15-
-0-----------------------------------------------------------------------------

-17-17-17-17-17-------------------------------------0------------------------------
-17-17-17-17-17-------------------------------5/19--0----17(20)17------------------
-17-17-17-17-17-----------------0--0------------------0----------------------------
-16-16-16-16-16--12-12--0\------x----0\----0----------------------0\\\\\\/////////-
-17-17-17-17-17--12-12--0\--0\--x----0\----0----------------------0----------------
------------------------0\--------------12------------------------0----------------

--------------------------------------------------------------------------------------------
-17(20)\\----18-18-18-18---------15-15-15-15-15-15-15-15-15-15-------------15-15-15-15-15---
-------------18-18-18-18---------x--x--x--x--x--x--x--x--x--x--------14-0--x--x--x--x--x----
----------0--18-18-18-18--16-14--13-13-13-13-13-13-13-13-13-13--0--0----0--13-13-13-13-13-0-
----------0--17-17-17-17--15-14---------------------------------0--0----0-------------------
----------0---------------------------------------------------------------------------------

-----------------------------------------------------------------
-0\\\///\\\///\\\///\\\///\\\///\\\///\\\------------------------
-0----------------------------------------0-\\\///\\\///--~~~~~~-
-0----------------------------------------0-\\\///\\\///--~~~~~~-
------------------------------------------0-\\\///\\\///--~~~~~~-
-----------------------------------------------------------------


Tap to rate this tab
# A B C D E F G H I J K L M N O P Q R S T U V W X Y Z