Guitaretab - guitar tabs
Song name
# A B C D E F G H I J K L M N O P Q R S T U V W X Y Z

Hendrix Jimi - Hey Baby tab

From: car@parks.parks.tas.gov.au (Colin Reed - GIS Section)
Subject: TAB:Hey Baby - Jimi Hendrix

Hey Baby (Land of the New Rising Sun) - Jimi Hendrix
----------------------------------------------------

Tab by Colin Reed (car@parks.parks.tas.gov.au)

e-|-----0--|-----------------------|--0--0--|--------------------------|-----3
B-|-----0--|-----------------------|--1--1--|--------------------------|-----0
G-|-----1--|-----------------------|--0--0--|-----------------------0--|-----0
D-|-----2--|-----------------------|--2--2--|--------------0--2--3-----|-----0
A-|--2--2--|--------------0--1--2--|--3--3--|--0--1--2--3--------------|--2--2
E-|--0--0--|--0--1--2--3-----------|--0--0--|--------------------------|--3--3


e-|-----------|-----------|-----------0--|-----------------------------|------
B-|-----------|-----------|-----------0--|-----------------------------|------
G-|--7--5-----|-----------|--------1--1--|-----------------------------|------
D-|--5--3--7--|--7--5-----|--------2--2--|--3--2--0-----0--------------|------
A-|--------5--|--5--3--7--|--7--5--2--2--|-----------3-----3--2--0-----|--3---
E-|-----------|--------5--|--5--3--0--0--|--------------------------3--|------


e-|-----------------------|--------------------------|------------------------
B-|-----------------------|--------------------------|------------------------
G-|-----------------------|--------------------------|------------------------
D-|-----------0-----------|--------------------------|--1--0--------1--0-----3
A-|--------2-----2--------|--1--0--------1--0--------|--------3--1--------3---
E-|--1--3-----------3--1--|--------3--1--------3--1--|------------------------


e-|-----------------------|--1--|---------------------------------------------
B-|-----------------------|--1--|---------------------------------------------
G-|-----------------------|--2--|---------------------------------------------
D-|--1--0-----------------|--3--|---------------------------------------------
A-|--------3--1--0--------|--3--|---------------------------------------------
E-|-----------------3--2--|--1--|---------------------------------------------


e-|--6--6--6--6--6--|--4--4--4--4--4--|--------------------------|------------
B-|--8--8--8--8--6--|--6--6--6--6--4--|--------------------------|------------
G-|--8--8--8--8--7--|--6--6--6--6--5--|--------------------------|------------
D-|--8--8--8--8--8--|--6--6--6--6--6--|--------6-----------7-----|--------8---
A-|--6--6--6--6--8--|--4--4--4--4--6--|-----------6-----------7--|-----------8
E-|--6--6--6--6--6--|--4--4--4--4--4--|--4--4--------5--5--------|--6--6------

e-|--------------|------------------------------------------------------------
B-|--------------|------------------------------------------------------------
G-|--------------|------------------------------------------------------------
D-|--------9-----|------------------------------------------------------------
A-|-----------9--|------------------------------------------------------------
E-|--7--7--------|------------------------------------------------------------

e-|--6--6--6--6--6--|--4--4--4--4--4--|--------------------------|------------
B-|--8--8--8--8--6--|--6--6--6--6--4--|--------------------------|------------
G-|--8--8--8--8--7--|--6--6--6--6--5--|--------------------------|------------
D-|--8--8--8--8--8--|--6--6--6--6--6--|--------6-----------7-----|--------8---
A-|--6--6--6--6--8--|--4--4--4--4--6--|-----------6-----------7--|-----------8
E-|--6--6--6--6--6--|--4--4--4--4--4--|--4--4--------5--5--------|--6--6------

e-|--------------|------------------------------------------------------------
B-|--------------|------------------------------------------------------------
G-|--------------|------------------------------------------------------------
D-|--------9-----|------------------------------------------------------------
A-|-----------9--|------------------------------------------------------------
E-|--7--7--------|------------------------------------------------------------


e-|--8--8--|-----------------------------|--6--6--6--6--|---------------------
B-|-10-10--|-----------------------------|--6--6--6--6--|---------------------
G-|-10-10--|-----------------------------|--7--7--7--7--|---------------------
D-|-10-10--|-----------------------------|--8--8--8--8--|---------------------
A-|--8--8--|--8-10--8--7--8--7-----------|--8--8--8--8--|---------------------
E-|--8--8--|-------------------10--8--6--|--6--6--6--6--|---------------------


e-|--5--5--|--------------------------|---------------------------------------
B-|--7--7--|--------------------------|---------------------------------------
G-|--7--7--|--------------------------|---------------------------------------
D-|--7--7--|--------------------------|---------------------------------------
A-|--5--5--|--5--7--5--4--5--4--------|---------------------------------------
E-|--5--5--|--------------------7--5--|---------------------------------------


e-|-----3--------3--|-----2--|--------------------------|--0------------------
B-|-----3--------3--|-----4--|--------------------------|--0------------------
G-|-----4--------4--|-----4--|--------------------------|--1------------------
D-|-----5--------5--|--4--4--|--------------------------|--2------------------
A-|-----5--5--5--5--|--2--2--|--2--4--2--1--2--1--------|--2------------------
E-|--3--3--3--3--3--|--2--2--|--------------------4--2--|--0------------------

     Am             G              F              D
e-|--------------|--------------|--------------|--5--5--5--5--5--|------------
B-|--------------|--------------|--------------|--7--7--7--7--7--|------------
G-|--------------|--------------|--------------|--7--7--7--7--7--|------------
D-|--------7-----|--------5-----|--------3-----|--7--7--7--7--7--|------------
A-|-----------7--|-----------5--|-----------3--|--5--5--5--5--5--|------------
E-|--5--5--------|--3--3--------|--1--1--------|--5--5--5--5--5--|------------
    (Solo around this for a while....)

     Am             G              F              D		
e-|--------------|--------------|--------------|--5--5--5--5--|---------------
B-|--------------|--------------|--------------|--7--7--7--7--|---------------
G-|--------------|--------------|--------------|--7--7--7--7--|---------------
D-|--------7-----|--------5-----|--------3-----|--7--7--7--7--|---------------
A-|-----------7--|-----------5--|-----------3--|--5--5--5--5--|---------------
E-|--5--5--------|--3--3--------|--1--1--------|--5--5--5--5--|---------------

    Hey Baby, 
    Where do you come from?
    She grins & points to space, puts a smile on her face & says
    I come from the Land of the New Rising Sun

    Hey Baby,
    Where are you trying to go to?
    She says I'm trying to spread love around to the moon
    And lord, peace of mind to you and yours
    
    Am              Db             D G              F#           E
e-|--------------|--4--4--4--4--|--5-10-10-10-10--|--9--9--9--|--7--7--7------
B-|--------------|--6--6--6--6--|--7-12-12-12-12--|-11-11-11--|--9--9--9------
G-|--5--5--5--5--|--6--6--6--6--|--7-12-12-12-12--|-11-11-11--|--9--9--9------
D-|--7--7--7--7--|--6--6--6--6--|--7/12-12-12-12--|-11-11-11--|--9--9--9------
A-|--7--7--7--7--|--4--4--4--4--|--5-10-10-10-10--|--9--9--9--|--7--7--7------
E-|--5--5--5--5--|--4--4--4--4--|--5-10-10-10-10--|--9--9--9--|--7--7--7------

     May I come    along... (3 times)






    Am              Db             D
e-|--------------|--4--4--4--4--|--5--5--5--5--5--5--5--5---------------------
B-|--------------|--6--6--6--6--|--7--7--7--7--7--7--7--7---------------------
G-|--5--5--5--5--|--6--6--6--6--|--7--7--7--7--7--7--7--7---------------------
D-|--7--7--7--7--|--6--6--6--6--|--7--7--7--7--7--7--7--7---------------------
A-|--7--7--7--7--|--4--4--4--4--|--5--5--5--5--5--5--5--5---------------------
E-|--5--5--5--5--|--4--4--4--4--|--5--5--5--5--5--5--5--5---------------------
     
      May I come     alo- ong

     E     G     B     D             Am
e-|-----|--3--|--7--|--5--|--5--5--|--5---------------------------------------
B-|-----|--3--|--7--|--7--|--7--7--|--5---------------------------------------
G-|--1--|--4--|--8--|--7--|--7--7--|--6---------------------------------------
D-|--2--|--5--|--9--|--7--|--7--7--|--7---------------------------------------
A-|--2--|--5--|--9--|--5--|--5--5--|--7---------------------------------------
E-|-----|--3--|--7--|--5--|--5--5--|--5---------------------------------------

    


3rd Verse
---------

	Hey baby,
	Can I step into your world a while?
	Yes you can she said
	Come on back with me for a while
	We're gonna go across the Jupiter sun
	And see all your people one by one.


	May I come along.... (etc.)
	


-- 
Colin Reed
Parks & Wildlife Service
Tasmania, Australia
car@parks.parks.tas.gov.au
[ Tab from: http://www.guitaretab.com/h/hendrix-jimi/8109.html ]
Related for Hey Baby tab
Hey Baby chords by Hendrix Jimi