Song name
# A B C D E F G H I J K L M N O P Q R S T U V W X Y Z

Hendrix Jimi - The Burning Of The Midnight Lamp tab

Date: Tue, 19 Nov 96 21:48:35 PST
From: "holja@airastur" 
Subject: TAB: The Burning of the Midnight Lamp

	        "The Burning of the Midnight Lamp"
		        Jimi Hendrix

Transcribed by James Holland

This is just the intro to the song off of Electric Ladyland.It's played with a wah-wah and a harpsichord. Don't pay attention to the bars and I didn't make an attempt of timing so you'll have to listen to the record to get it, but it's pretty easy anyway. Enjoy:	

|---------------------------------------------------------------------- |
|-----------------------------------------------------------------------|
|-----------------------------------------------------------------------|
|-------------------3------2------------------------------------------|
|-----------3----------------------3-------5-----5-----3-----3----|
|-----3----------------------------------------------------------------|

|-----------------------------------------------------------------------------------------------------------|
|-----------------------------------------------------------------------------------------------------------|
|-----------------------------------------------------------------------------------------------------------|
|----------3------2---------------------2-------------------------3-----2------------------------------|
|-------------------------3------5--------------3----------1-------------------3---5---5----3s5---| |---1---------------------------------------------------1-------------------------------------------------|

|----------------------------------------------|
|----------------------------------------------|
|----------------------------------------------|
|----2-----2----3----2----------------2---|      x2
|-------------------------------5-------------|
|----------------------------------------------|

Well, that's it. I think somebody posted the chords, so the whole song should be in here.


"Who is more foolish, the fool or the one who follows him?"
				               Obi One Kanobi
				




Date: Fri, 11 Apr 97 10:58:21 PDT
From: "holja@airastur" 
Subject: "The Burning of the Midnight Lamp" by Hendrix, Jimi

This is the corrected version of the intro to the Burning of the Midnight Lamp by Hendrix:

|-------------------|---------------|    |-------------------|---------------|
|-------------------|---------------|
|-----3-2---0-0-----|---3-2---0-2---|
|---3-----3-----3-3-|-------3-----3-|
|-3-----------------|-1-------------|

|--------------------------------|
|--------------------------------|
|--------------------------------|
|-----3-2---0-0---0-2--2-3-2-0-2-|
|---1-----3-----3----------------|
|-1------------------------------|

Tab by James Holland, once again...
Tap to rate this tab
 
# A B C D E F G H I J K L M N O P Q R S T U V W X Y Z