Song name
# A B C D E F G H I J K L M N O P Q R S T U V W X Y Z

Hendrix Jimi - The Wind Cries Mary tab

this is my first tab!!!

plz rate

also i have playd this live so i am sure it is corect!!!

e|--------------------------------------------------|
B|--------------------------------------------------|
G|--------------------------------------------------|
D|--------------3h5-4h6-5h7-------------------------|
A|-4s5-5s6-6s8--------------------------------------|
E|-4s5-5s6-6s8--------------------------------------|


e|--------------------------------------------------|
B|--------------------------------------------------|
G|------------------------------7-5---7-5---7-5-----|
D|--------------3h5-4h6-5h7-5-7-----7-----7-----7---|
A|-4s5-5s6-6s8--------------------------------------|
E|-4s5-5s6-6s8--------------------------------------|


enjoy
Tap to rate this tab
# A B C D E F G H I J K L M N O P Q R S T U V W X Y Z