Song name
# A B C D E F G H I J K L M N O P Q R S T U V W X Y Z

Hendrix Jimi - Villanova Junction tab

Here is Jimi Hendrix's "Villanova Junction," one great piece of music. 

i sent this earlier but i wasnt logged in, and i wanted a email back to know if it was recieved, sry!







heres the main riff                  _______________________________________
                                     | sorta mute all this, but not too much|
                                      tht u cant hear it                   
e|---------------------------------|--------------------------------------------|
B|---------------------------------|--------5----------5---------5--------------|
G|-------5--7------7b9r7----5---7--|--------5----------5---------5--------------|
D|--5/7--------5-------------------|--------5----------5---------5--------------|
A|---------------------------------|--------------------------------------------|
E|---------------------------------|--5-5------5--5-5------5-5-5----5-----------|

e|-----------------------------------------------------------------------------|
B|-------------------------5---------------------------------------------------|
G|-------------------------5------5-7----7-7b9-7-5-7--(indistinct)-------------|
D|--5-7-5-7-5--------------5----7-----5----------------------------------------|
A|-------------5tr7-5----------------------------------------------------------|
E|-------------------8-5-5-----------------------------------------------------|
     (if thts not^ a trill then its a real fast hammer on, same w/ below)
e|--------------------------|------------------------------------------------|
B|--------------------------|------------------------------------------------|
G|-----------5tr7--5--------|-5h7-5---5--------------------------------------|
D|------5h7----------7--5-5-|-------7---7------------------------------------|
A|--5h7---------------------|--------------7-8-8-8-8-7-6-5-------------------|
E|--------------------------|------------------------------------------------|
  just guessin here below
e|------------------------|--------------------------------------------------|
B|------------------------|--------------------------------------------------|
G|-7-5--------------------|----5-7-----7b9r7-5-5h7---------------------------|
D|-----7-5-7-5------------|--7------5--------------7-------------------------|
A|-------------5-7--------|--------------------------------------------------|
E|------------------------|--------------------------------------------------|

and thats really all there is to it, play around w/ tht main scale for solos. 
Tap to rate this tab
# A B C D E F G H I J K L M N O P Q R S T U V W X Y Z