Song name
# A B C D E F G H I J K L M N O P Q R S T U V W X Y Z

Hendrix Jimi - Wait Till Tomorrow tab

Wait Till Tomorrow


Words and Music by: Jimi Hendrix

Performed by: John Mayer Trio

Album: Try

Transcribed by: Gabe

Tuning: Down 1/2 step

Difficulty: *****

Not transcribed note for note but this is the main theme of the song


Key:

h -Hammer On
p -Pull Off
/ -Slide Up
\ -Slide Down
x -Muted String
b -Bend
~ -Let Ring


Intro

eb----------------------------------------------------|
bb--9h10--9h10--9-------------7h8--7h8--7-------------|
gb--9-----9-----9--x-x--------7----7----7-------------|(x2)
db--9h11--9h11--9--x-x-----9--7h9--7h9--7----7--------|
ab-----------------x-x-9h11---------------7h9---------|
Eb----------------------------------------------------|


Verses

eb-------/7--10-9--7---------|
bb--/5---/7--7--7--7---------|
gb--/6---/7--7--7--7---------|
db--/7---/7--7--7--7---------|
ab--/x-----------------------|
Eb--/5-----------------------|
"Well im standing here..."
"Oh darlin may..."

Pre-Chorus

eb----------------|
bb--9h10--10------|
gb--9-----9-------|
db--9h11--11------|
ab----------------|
Eb----------------|
"But now your tellin me..."
"Then I hear your say..."


Chorus

eb--0--------|
bb--0--3-----|
gb--1--4-----|
db--2--5-----|
ab--2--x-----|
Eb--0--3-----|
"Think I'd better wait..."


eb--0----|
bb--0----|
gb--0----|
db--0----|
ab--0----|
Eb--0----|
"Gotta make sure its..."
"Wont be around..."
Tap to rate this tab
# A B C D E F G H I J K L M N O P Q R S T U V W X Y Z