Song name
# A B C D E F G H I J K L M N O P Q R S T U V W X Y Z

Hendrix Jimi - Wild Thing tab

Wild Thing
Jimi Hendrix
Tabbed by:Knox.00@hotmail.com

Intro

|---------------------------------------------------|---------------------------------------|
|---------------------------------------------------|---------------------------------------|
|-------7FB--------------------------------LG-------|---------------------------------------|
|---------------------------------------------------|----------7-7-7-7------7-7-7-7---7-7---|
|---------------------------------------------------|---7-7----5-5-5-5------9-9-9-9---9-9---|
|---------------------------------------------------|---5-5----0-0-0-0------0-0-0-0---0-0---|

Chorus
	X3
|-------------------------------------------------|-----------------------------------------|
|-------------------------------------------------|-----------------------------------------|
|-o---------------------------------------------o-|-----------------------------------------|
|-o--------7-7-7-7-----9-9-----7-7-7-7----------o-|------------7-7-7-7------9-9-9-9---9-9---|
|---7-7---5-5-5-5-----7-7------5-5-5-5------------|-----5-5----5-5-5-5------7-7-7-7---7-7---|
|---5-5---0-0-0-0-----0-0------0-0-0-0------------|-----7-7----0-0-0-0------0-0-0-0---0-0---|

Verse 1
X4
|-------------------------------------------|
|-------------------------------------------|
|-o---------------------------------------o-|
|-o---------------------------------------o-|
|---5-/-7-\-5-/-7---------------------------|
|---3-/-5-\-3-/-5---------------------------|

Verse 2
X5
|-------------------------------------------|----------------------------------------|
|-------------------------------------------|----------------------------------------|
|-o---------------------------------------o-|----------------------------------------|
|-o-------7-7-7-7-----9-9------7-7-7-7----o-|------------7-7-7-7------9-9-9-9---9-9--|
|---7-7---5-5-5-5-----7-7------5-5-5-5------|-----5-5----5-5-5-5------7-7-7-7---7-7--|
|---5-5---0-0-0-0-----0-0------0-0-0-0------|-----7-7----0-0-0-0------0-0-0-0---0-0--|




Verse 3

|-------------------------------------------------|----------------------------------------|
|-------------------------------------------------|----------------------------------------|
|-------------------------------------------------|----------------------------------------|
|----------7-7-7-7-----9-9------7-7-7-7-----------|------------7-7-7-7------9-9-9-9---9-9--|
|---7-7---5-5-5-5-----7-7------5-5-5-5------------|-----5-5----5-5-5-5------7-7-7-7---7-7--|
|---5-5---0-0-0-0-----0-0------0-0-0-0------------|-----7-7----0-0-0-0------0-0-0-0---0-0--|

|-------------------------------------------------|------------------------------------|
|-------------------------------------------------|------------------------------------|
|-------------------------------------------------|------------------------------------|
|---7-7-7-7--7-7--------7-7-7-7--7-7--------------|----7-7-7-7-7-7-7-7-----------------|
|---9-9-9-9--9-9--------9-9-9-9--9-9--------------|----9-9-9-9-9-9-9-9-----------------|
|---0-0-0-0--0-0--------0-0-0-0--0-0--------------|----0-0-0-0-0-0-0-0-----------------|

Outro
	X5
|-------------------------------------------|----------------------------------|
|-------------------------------------------|----------------------------------|
|-o---------------------------------------o-|----------------------------------|
|-o-------7-7-7-7-----9-9------7-7-7-7----o-|---------7-7-7-7---9-9---7-7-7-7--|fadeout
|---7-7---5-5-5-5-----7-7------5-5-5-5------|--5-5----5-5-5-5---7-7---5-5-5-5--|
|---5-5---0-0-0-0-----0-0------0-0-0-0------|--7-7----0-0-0-0---0-0---0-0-0-0--|

-	Intro
-	Chorus
-	Verse 1
-	Verse 2
-	Verse 1
-	Verse 3
-	Outro
Tap to rate this tab
 
# A B C D E F G H I J K L M N O P Q R S T U V W X Y Z