Guitaretab - guitar tabs
Song name
# A B C D E F G H I J K L M N O P Q R S T U V W X Y Z

Henri Franciscus - White Pyjamas tab

#----------------------------------PLEASE NOTE--------------------------------#
#This file is the author's own work and represents their interpretation of the#
#song. You may only use this file for private study, scholarship, or research.#
#-----------------------------------------------------------------------------#
#-- File created with Instab - http://www.pconline.com/~smcarey/instab.html --#
#-----------------------------------------------------------------------------#

Author/Artist: Franciscus henry
Title: White Pyjamas
Album: White Pyjamas
Transcribed by: addamm
RIFF ORDER:
Riff 1 x 6
Riff 2 x 1
Riff 1 x 6
Riff 2 x 1
Riff 1 x 6
Riff 2 x 1
Riff 1 x 6
Riff 2 x 1
Riff 1 x 6
[ Tab from: http://www.guitaretab.com/h/henri-franciscus/38837.html ]
------------------------------------------------------------------------------|
------------------------------------------------------------------------------|
-7-7-7-7----------------------------------------------------------------------|
-7-7-7-7-9-9-9-9-5-5-5-5-7-7-7-7---x6-----------------------------------------|
-5-5-5-5-9-9-9-9-5-5-5-5-7-7-7-7----------------------------------------------|
---------7-7-7-7-3-3-3-3-5-5-5-5----------------------------------------------|


------------------------------------------------------------------------------|
------------------------------------------------------------------------------|
-9-9-9-9-9-9-9-9--------------------------------------------------------------|
-9-9-9-9-9-9-9-9-5-5-5-5-7-7-7-7---x1-----------------------------------------|
-7-7-7-7-6-6-6-6-5-5-5-5-7-7-7-7----------------------------------------------|
-----------------3-3-3-3-5-5-5-5----------------------------------------------|
Advertisement will be closed in 10 seconds