Song name
# A B C D E F G H I J K L M N O P Q R S T U V W X Y Z

Henrik Freischlader Band - The Blues tab

The Blues                                     

Henrik Freischlader
www.henrik-freischlader.de
www.myspace.com/henrikfreischlader

Intro:

     E  Q    E  Q    E  E     E   E  E  E  Q     E  E   
E||------------------------|---------------------------|
B||------------------------|---------------------------|
G||------------------------|---------------------------|
D||------------------------|--5h--6--------------------|
A||-------------5----7-----|---------7-----5~----7-----|
E||----------0----------0--|------------0-----------0--|


  Q     E    E  E    E  Q       E   E  E  E  Q     E  E   
-----------------------------|---------------------------|
-----------------------------|---------------------------|
-----------------------------|---------------------------|
-----------------------------|--5h--6--------------------|
----------------5h~--6--7----|---------7-----5~----7-----|
--3~----0--6g7---------------|------------0-----------0--|


  Q    E  E  E  E  E  E     E   E  E  E    H           E   E  Q    E  E  Q      
-------------------------|--------------------------|-------------------------||
-------------------------|--------------------------|-------------------------||
-------------------------|--------------------------|-------------------------||
-------------------------|--5h--6-------------------|-------------------------||
----------7--5--6--7-----|---------7-----5g7--------|--7p--5------------------||
--3----0--------------0--|------------0-------------|---------3----0----------||
Tap to rate this tab
 
# A B C D E F G H I J K L M N O P Q R S T U V W X Y Z