Song name
# A B C D E F G H I J K L M N O P Q R S T U V W X Y Z

Henry Clay Work - My Grandfathers Clock tab

My Grandfather's Clock:

PM = Palm Mute

   My grandfather's clock...
e|--------------------------------------------------------|
B|--------------------------------------------------------|
G|--------------------------------------------------------|
D|-0-5---4-5-7---5-7-9---10-9-2---7-7-5---5-5-4-2-4--5----|
A|--------------------------------------------------------|
E|--------------------------------------------------------|

   It was taller by half...
e|--------------------------------------------------------|
B|--------------------------------------------------------|
G|--------------------------------------------------------|
D|-0-0-5---4-5-7---5-7-9---10-9-2---7-7-5---5-5-4-2-4--5--|
A|--------------------------------------------------------|
E|--------------------------------------------------------|

   It was bought on the morn...
e|--------------------------------------------------------|
B|--------------------------------------------------------|
G|--------------------------------------------------------|
D|-9-10-12--9-7-5---4-5-7-5-4-2-0---9-10-12--9-7-5--4-5-7-|
A|--------------------------------------------------------|
E|--------------------------------------------------------|

   But it stopped.. short...
e|--------------------------------------------------------|
B|--------------------------------------------------------|
G|--------------------------------------------------------|
D|-0-0--5pm--7pm---99-9-10-9-2---7-7---5pm--4pm--5--------|
A|--------------------------------------------------------|
E|--------------------------------------------------------|

   Ninety years without slumbering...
e|--------------------------------------------------------|
B|--------------------------------------------------------|
G|--------------------------------------------------------|
D|-0-0-5---0-0-2-2-0-----0---0--0-5---0-0-2-2-0-----0-----|
A|---------------------2---2----------------------2---2---|
E|--------------------------------------------------------|


   But it stopped.. short...
e|--------------------------------------------------------|
B|--------------------------------------------------------|
G|--------------------------------------------------------|
D|-0-0--5pm--7pm---99-9-10-9-2---7-7---5pm--4pm--5--------|
A|--------------------------------------------------------|
E|--------------------------------------------------------|
Tap to rate this tab
# A B C D E F G H I J K L M N O P Q R S T U V W X Y Z