Song name
# A B C D E F G H I J K L M N O P Q R S T U V W X Y Z

Henry Mancini - Experiment In Terror tab

Bass riff
G|----------------------------------------------------|
D|----------------------------------------------------|
A|----------------------------------------------------|
D|-0~--3~--7~---3-7-0---------------------------------|

Harp(?) Riff Dmin
e|---17-----------------------------------------------|
B|-----18---------------------------------------------|
G|-------19-------------------------------------------|
D|---------19-----------------------------------------|
A|-----------17---------------------------------------|
E|----------------------------------------------------|

Guitar Riff
e|----------------------------------------------------|
B|----------------------------------------------------|
G|----------------------------------------------------|
D|--0-3~-0-5~---0-3~-0-10-7~---7-5~----0-5-3~---------|
A|----------------------------------------------------|
E|----------------------------------------------------|

e|----------------------------------------------------|
B|----------------------------------------------------|
G|----------------------------------------------------|
D|--0-3-2~--------------------------------------------|
A|-----------3-5~-------------------------------------|
E|----------------------------------------------------|

Strings part
e|---12-13-17~-15--14~------12-13-17/19--17-16~--12-15~-|
B|15---------------------15-----------------------------|
G|------------------------------------------------------|
D|------------------------------------------------------|
A|------------------------------------------------------|
E|------------------------------------------------------|

Well there you go. For an "Experiment in Terror" it sure is sexy.
Tap to rate this tab
# A B C D E F G H I J K L M N O P Q R S T U V W X Y Z