Song name
# A B C D E F G H I J K L M N O P Q R S T U V W X Y Z

Henry Mancini - The Pink Panther Theme tab

this is only part of the song, as i'm figuring it out and uploading the parts of it as i 
it out...

h = hammer on
b = bend
p = pull-off
/ = slide up
\ = slide down


e|----------------------------------------------------------|
B|----------------------------------------------------------|
G|----------------------------------------------------------|
D|----------------------------------------------------------|
A|---------------------5\4-------4\3----2--0----------------|
E|-1/2--4/5----1/2--4/5-------1/2---------------2p0h2b------|

e|----------------------------------------------------------|
B|----------------------------------------------------------|
G|----------------------------------------------------------|
D|----------------------------------------------------------|
A|---------------------5\4---------4\3----------------------|
E|-1/2--4/5----1/2--4/5-------1/2---------------------------|
Tap to rate this tab
# A B C D E F G H I J K L M N O P Q R S T U V W X Y Z