Song name
# A B C D E F G H I J K L M N O P Q R S T U V W X Y Z

Henry Mancini - A Shot In The Dark tab

I think this is the correct version of ''A shot in the dark'' by Henry Mancini. I
am working on the solo right now. hope you enjoy!


Guitar I|
|---------------------------------|
|---------------------------------|
|----------2-2-1-1-0-0------------|
|------2-2-------------2-2-1-1-0-0|
|--0-0----------------------------|

Guitar II (trumpet part)
|---------------------------------------------------------|
|---------------------------------------------------------|
|--------14b15--14-14b15--12------------------------------|
|-----14---------------------14-12-14-14-12-14-12---------|
|--14---------------------------------------------14-12-14|
|---------------------------------------------------------|

Guitar II (orchestra part)
|-------------------------|---------------------------------------------------|
|-------------------------|---------------------------------------------------|
|-----12-14-12----12~-----|-----12-14-12----14b15--14b15--14b15--14p12-----12-|
|--14----------14------14-|--14----------14-----------------------------14----|
|-------------------------|---------------------------------------------------|
|-------------------------|---------------------------------------------------|
Tap to rate this tab
 
# A B C D E F G H I J K L M N O P Q R S T U V W X Y Z