Song name
# A B C D E F G H I J K L M N O P Q R S T U V W X Y Z

Henry Mancini - Inspector Clouseau Theme tab

Artist: Henry Mancini
Song: The Inspector Clouseau Theme
Album: The Pink Panther Strikes Again
Tabbed by: SiQux (knj_89@hotmail.com)

Tuning: Standard

|12-8-5--17-13-10-|-7-8-7-8-10-3--15-12-8-|
|-----------------|-----------------------|
|-----------------|-----------------------|
|-----------------|-----------------------|
|-----------------|-----------------------|
|-----------------|-----------------------|

|5-7-5-7-8-1--13-10-5-1----7--1-8----7--1-8----10-10-10-10-12-10-8-7-5|
|------------------------5---------5---------5------------------------|
|---------------------------------------------------------------------|
|---------------------------------------------------------------------|
|---------------------------------------------------------------------|
|---------------------------------------------------------------------|

|-----------------|-----------------------|
|-----------------|-----------------------|
|-----------------|-----------------------|
|-----------------|-----------------------|
|12-8-5--17-13-10-|-7-8-7-8-10-3--15-12-8-|
|-----------------|-----------------------|

|---------------------------------------------------------------------|
|---------------------------------------------------------------------|
|---------------------------------------------------------------------|
|---------------------------------------------------------------------|
|5-7-5-7-8-1--13-10-5-1----7--1-8----7--1-8----10-10-10-10-12-10-8-7-5|
|------------------------5---------5---------5------------------------|

|17-15-13-12-10-8-7-10-|-15-13-12-10-8-7-5-8-|-13-12-10-8-7-5-4-7-|
|----------------------|---------------------|--------------------|
|----------------------|---------------------|--------------------|
|----------------------|---------------------|--------------------|
|----------------------|---------------------|--------------------|
|----------------------|---------------------|--------------------|

|5-7-8-10-12-5-8-12|
|------------------|
|------------------|
|------------------|
|------------------|
|------------------|

|17-15-13-12-10-8-7-10-|-15-13-12-10-8-7-5-8-|-13-12-10-8-7-5-4-7-5|
|----------------------|---------------------|---------------------|
|----------------------|---------------------|---------------------|
|----------------------|---------------------|---------------------|
|----------------------|---------------------|---------------------|
|----------------------|---------------------|---------------------|

|-----------------|-----------------------|
|-----------------|-----------------------|
|12-8-5--17-13-10-|-7-8-7-8-10-3--15-12-8-|
|-----------------|-----------------------|
|-----------------|-----------------------|
|-----------------|-----------------------|

|----------------------------------------------------------------------|
|----------------------------------------------------------------------|
|5-7-5-7-8-1--13-10-5-1----7--1-8----7--1-8----10-10-10-10-12-10-8-7-5-|
|------------------------5---------5---------5-------------------------|
|----------------------------------------------------------------------|
|----------------------------------------------------------------------|


|19-17-15-14-12-10-9-12-|-17-15-13-12-10-8-7-10-|-15-13-12-10-8-7-5-8-|
|-----------------------|-----------------------|---------------------|
|-----------------------|-----------------------|---------------------|
|-----------------------|-----------------------|---------------------|
|-----------------------|-----------------------|---------------------|
|-----------------------|-----------------------|---------------------|

|13-12-10-8-7-5-4-7|
|------------------|
|------------------|
|------------------|
|------------------|
-------------------|

|19-17-15-14-12-10-9-12-|-17-15-13-12-10-8-7-10-|-15-13-12-10-8-7-5-8|
|-----------------------|-----------------------|--------------------|
|-----------------------|-----------------------|--------------------|
|-----------------------|-----------------------|--------------------|
|-----------------------|-----------------------|--------------------|
|-----------------------|-----------------------|--------------------|

|12-8-5--17-13-10-|-7-8-7-8-10-3--15-12-8-|
|-----------------|-----------------------|
|-----------------|-----------------------|
|-----------------|-----------------------|
|-----------------|-----------------------|
|-----------------|-----------------------|

|5-7-5-7-8-1--13-10-5-1----7--1-8----7--1-8----10-10-10-10-12-10-8-7-5|
|------------------------5---------5---------5------------------------|
|---------------------------------------------------------------------|
|---------------------------------------------------------------------|
|---------------------------------------------------------------------|
|---------------------------------------------------------------------|

This is my first tab so go easy on me =) but I think it sounds right.
Tap to rate this tab
# A B C D E F G H I J K L M N O P Q R S T U V W X Y Z