Song name
# A B C D E F G H I J K L M N O P Q R S T U V W X Y Z

Henry Tudor - Pastime tab

#----------------------------------PLEASE NOTE-------------------------------#
#This file is the author's own work and represents my interpretation of the  #
#song. You may only use this file for private study, scholarship, or research#
#----------------------------------------------------------------------------#
                               
            Title: Pastime
           Author: King Henry VIII "Tudor" (1491-1547 / Renaissance)
   Transcribed by: Adam Guzowski (guitarra@poczta.fm)
             Date: 14-IX-2002
Other corrections: (...are welcome)

1) Guitar tuning: (standard) EAGDBE - Old lute music sounds good with Capo on
                  3rd or 4th fret

2) General Info: Chords, chords, chords. All about chords. Hope the LHF
                 will solve the problem. Keep the tempo. Listen to the MIDI
                 This one is not really for beginners, or maybe it is... :)
                 In other transcriptions this tune should be played twice, 
                 like it is in the MIDI file.
                 Good luck.
      
3) Tabulature info: 
    
   1 2 3 4     -> left hand fingering
   Arp.        -> Arpeggio
   Stc.        -> Staccato
   =====       -> 16th notes
    .          -> Dotted note
    x          -> short pause (8th pause)


Tempo:  4/4  (aprox. 90/100 bpm) 

    Arp       Arp                      Arp          Arp       Arp 
     .         .            .   =                    .
                                        2      2 
               3      3     2   3 2     3      3     3      3  2
     1      1  1      1     1   1 1  1  1      1     1      1  1      1         
                                                                          
E||--0------0--3------3--|--2---3-2--0------------|--3------3--2------0--|
B||--0------0--0------0--|------0-------3------3--|--0------0------------|
G||----------------------|--2-----2--0------------|------------2------0--|
D||--2------2--2---------|--0-----0--2--4------4--|--2---------0------2--|
A||-------------------2--|------2-------2------2--|---------2------------|
E||----------------------|------------------------|----------------------|

              Arp         Arp       Arp                      Arp
   .   =                   .         .            .   =       
   4     4  4                                                 2      2
   3   1 3  3              3      3  3      3     2   3 2     3      3
   1   2 1     1           1      1  1      1     1   1 1  1  1      1
                                                                        
|------0-------0--------|--3------3--3------3--|--2---3-2--0------------|
|--4-----4--4-----------|--0------0--0------0--|------0-------3------3--|
|-----------------------|----------------------|--2-----2--0------------|
|--4---2-4--4--2--------|--2------2--2---------|--0-----0-----4------4--|
|--2---3-2--------------|-------------------2--|------2----2--2------2--|
|--------------0--------|----------------------|------------------------|

  Arp                                  Arp    Stc..........   Arp    Stc..
   .         .   =          .   =          X                      X
                            4     4            2                      2  
   3      3  2              3   1 3  4         3          2    3      3
   1      1  1     1  1     1   2 1  3  1      1     1    1    2      1  
                                                                         
|--3------3--2--------0--|------0-------0---------|--0----2----3---------|
|--0------0------0-------|--4-----4--4---------3--|------------0------3--|
|------------2-----2--0--|---------------------4--|--0----2-----------4--|
|--2---------0--------2--|--4---2-4--4--2---------|----------------------|
|---------2--------------|--2---3-2---------------|--3----0--------------|
|------------------------|--------------0------3--|------------3------3--|

..........  Arp                      Arp    Stc...........  Arp    Stc..
                 X        .   =           X                     X
                                      2      2                      2
        2    3      3     2   3 2     3      3          2    3      3 
   1    1    2      2     1   1 1  1  1      1     1    1    2      1 
                                                                       
|--0----2----3------3--|--2---3-2--0------------|--0----2----3---------|
|------------0------0--|------0-------3------3--|------------0------3--|
|--0----2--------------|--2-----2--0---------4--|--0----2-----------4--|
|----------------------|--0-----0--2--4---------|----------------------|
|--3----0--------------|------2-------2---------|--3----0--------------|
|------------3------3--|---------------------3--|------------3------3--|

........... Arp                        Arp 
                 X        ======= .   =
                    2             4
        2    3      3     2   3   3
   1    1    2      1     1   2 1 1     1        End. 
                                                                        
|--0----2----3---------|--2---0-------0-0--------||
|------------0------3--|----------4--------------||
|--0----2-----------4--|--2-0--------------------||
|----------------------|------4-2-4-----2--------||
|--3----0--------------|--0---3---2--------------||
|------------3------3--|----------------0--------||



NOTE: If you've got or know where other lute works can be found please Mail me.
       - Thank you.



Tap to rate this tab
 
# A B C D E F G H I J K L M N O P Q R S T U V W X Y Z