Song name
# A B C D E F G H I J K L M N O P Q R S T U V W X Y Z

Henry Tudor - Helas Madame tab

#----------------------------------PLEASE NOTE-------------------------------#
#This file is the author's own work and represents my interpretation of the  #
#song. You may only use this file for private study, scholarship, or research#
#----------------------------------------------------------------------------#
                               
            Title: Helas Madame
           Author: king Henry VIII "Tudor"  (1491 - 1547 / Renaissance)
   Transcribed by: Adam Guzowski (guitarra@poczta.fm)
             Date: 16-IX-2002
Other corrections: (...are welcome)

1) Guitar tuning: (standard) EAGDBE - Old lute music sounds good with Capo
                                      on 3rd or 4th fret

2) General Info: This is another tune from this fabulous composer (and king :)
                 Listen the MIDI. This tune is rather easy, but you will find
                 some tricky parts. Good luck.
      
3) Tablature info: 
    
   1 2 3 4     -> left hand fingering
   (I).....    -> Hold BARRE Chord
   Arp.        -> Arpeggio (all chords can be played with soft arpeggio)
   =====       -> 16th notes
    .          -> Dotted note

Tempo: 4/4   (Aprox. 120 bpm)


                           . 
     2
     3        2    2       2            3       2         3
     1        1    1       1            2       1    1    1    4

E||--3--------3----3----|--2------------3----|--2----0----0---------|
B||-----------0----0----|---------------0----|-----------------4----|
G||--4------------------|--2-----------------|--2----0--------------|
D||--2--------2----2----|--0-----------------|--0----2----4---------|
A||---------------------|--------------------|------------2---------|
E||---------------------|---------------3----|----------------------|


                                                                      3 
                                                                      2
                             3        3    3       2                  4 
   1    3  2     2     4     1        1    1       1     2  3  2    2 1 

|--0----------------------|--3--------3----3----|--2--0--2--3--2--0-2-3----|
|--0----3--2--0-----------|--0--------0----0----|---------------------3----|
|----------------2--0-----|---------------------|--2------------------4----|
|--2-------------------4--|--2--------2----2----|--0-----------------------|
|-------------------------|---------------------|--------------------------|
|--0----------------------|---------------------|---------------------3----|

                      ===
                                                          2
   2          3                                           3         2
   1     1    1    4  1 4    1    3  2       1       1    1    1    1

|--2--0--0----0-----------|--0---------------0----|--0---------0----2----|
|------------------4--2-4-|--0----3--2--0---------|-------3--------------|
|--2-----0----------------|------------------0----|--0---------0----2----|
|--0-----2----4-----------|--2---------------2----|--2----4----2----0----|
|-------------2-----------|-----------------------|-------2--------------|
|-------------------------|--0--------------------|----------------------|


                         4
   3        3            3         4            3                3
   2        2    3       1    4    1    2       1       2  1     2  1

|--3--------3----3----|--5----3----3----2----|--3----------------3-----|
|--0--------0----0----|-------0--------------|--0----------------0-----|
|----------------0----|--5----0----2---------|-------------------------|
|---------------------|--3---------0---------|--2----0-----------------|
|---------------------|----------------------|----------3--2--0--------|
|--3--------3---------|----------------------|--0----------------3--2--|

   .

          3  3     3        3                3       3         3  
   3      1  2     1  4     1     1     1    2       2    1    1    4

|--3------3--3-----3-----|--2----------------3----|--2----0----0---------|
|--0------0--0-----0-----|-----------0-------0----|-----------------4----|
|------------------------|--2--0--2-----2---------|--2----0--------------|
|------------------------|--0---------------------|--0----2----4---------|
|---------------0--2--4--|------------------------|------------2---------|
|--0------2--3-----------|-------------------3----|----------------------|

                             .                                     ===
                                                                       3
                             3         3    3       2     2
   1    3  2     2     4     1      3  1    1       1     1  3  2      2
                                                                1
|--0----------------0-----|--3------3--3----3----|--2--0--2--3--2------3----|
|--0----3--2--0-----------|--0---------0----0----|-----------0---------0----|
|----------------2--0-----|----------------------|--2--0--2-----2--0-2------|
|--2-------------------4--|--2---------2----2----|--------------0-----------|
|-------------------------|----------------------|--------------------------|
|--0----------------------|----------------------|---------------------3----|


                      ===
   2          3
   1     1    1    4  1 4    1    3  2          End.

|--2--0--0----0-----------|--0-------------------||
|------------------4--2-4-|--0----3--2--0--------||
|--2-----0----------------|----------------------||
|--0-----2----4-----------|--2-------------------||
|-------------2-----------|----------------------||
|-------------------------|--0-------------------||



NOTE: If you've got or know where other lute works can be found please Mail me.
       Thank you.


Tap to rate this tab
# A B C D E F G H I J K L M N O P Q R S T U V W X Y Z