Song name
# A B C D E F G H I J K L M N O P Q R S T U V W X Y Z

Henry Tudor - Fantasia No 3 tab

#---------------------------------PLEASE NOTE---------------------------------#
#This file is the author's own work and represents my interpretation of the   #
#song. You may only use this file for private study, scholarship, or research.#
#-----------------------------------------------------------------------------#

            Title: Fantasia No.3
           Author: King Henry VIII "Tudor"  (1491 - 1547 / Renaissance)
   Transcribed by: Adam Guzowski (guitarra@poczta.fm)
             Date: 15-X-2002
Other corrections: (...are welcome)

1) Guitar tuning: (standard) EAGDBE - This one, I love to play with Capo on 2nd

2) General Info: Here is another beautiful lute work. This one, like "If love
                 now reigned", is not a music miniature, but a full composition
                 in five parts, some of which are difficult to play. Before
                 playing it, practice your Barre chords well, and listen to the
                 MIDI. Learn it slowly, very slowly. Compare it to "fantasias"
                 written by other composes. As in "If love now reigned", all
                 the parts are different and need to be played with different
                 emotions. Please mail me if you have problems with this or with
                 other compositions by Henry VIII. I'll try to help. Good luck.
      
3) Tabulature info: 
    
   1 2 3 4   ->  left hand fingering
   (I).....  ->  Hold BARRE Chord
   Arp.      ->  Arpeggio - all the chords can be played with soft arpeggio
   =====     ->  16th notes
    .        ->  Dotted note
   .....     ->  hold "this" note / notes / chord through all the dots

[NOTE - the MIDI, like the tab, is written in 6/8, but the main beats are not
always on the first note of the measures - weed@wussu.com - 6 November 2002]


Tempo:  6/8  (aprox. 100 bpm - but different bpm for different parts !!!)

Part 1 
                                          .                 ======= .
                            1                                       4
     2        2       1  4  3  1          4         4       3 4 1 4 2      3

E||--0-------------|--------0--1--0----|---------0-------|--0-------3---------|
B||--0--------0----|--1--3--1----------|--3---------3----|----3-1-3-----------|
G||-----------0----|-------------------|--0--------------|--------------------|
D||--2--------2----|-------------------|-----------------|--3-------2------3--|
A||----------------|--------3----------|-----------------|--------------------|
E||----------------|-------------------|-----------------|--------------------|


                                          4.......................
             1       4     1     4  1     2
   2    1    3       3     2     3  2     3     1     4          4  2

|-------1----0----|-----0--1--0--------|-----0--1--0-------|--0-----0--------|
|------------1----|--3-----------3--1--|--3-----------3----|-----3--0--------|
|-----------------|-----0--2--0--------|--2----------------|-----------------|
|--2----0---------|--3-----------3--2--|--3----------------|--------2--------|
|------------3----|--------------------|-------------------|-----------------|
|-----------------|--------------------|-------------------|-----------------|


Part 2                                                      (III)
                                                              4
            1                                    4            1
   2        3                1       1     2  1  3      1     1     1  2

|--0-------------|------0---------|--0----------------|-------7-----------|
|--0--------1----|------0---------|--0-----------5----|-------3-----------|
|-----------0----|----------------|--------------5----|-------------------|
|--2-------------|------0----2----|--2--0-------------|-------------------|
|-----------3----|----------------|--------3--2--0----|--3-------0--2--3--|
|----------------|----------------|-------------------|-------3-----------|


         4......                                           3         (V)...
         3                   3                4            1
      1  1  1  1        1    1           3    1    4       2       4  1

|--------5-----------|-------3--------|--3----5----7----|--8-------7--5----|
|--------------------|-------0--------|-----------------|-------0----------|
|--------5--------0--|--2-------------|------------0----|----------0--5----|
|--0--2--3--2--3-----|-------2--------|-------3---------|--7---------------|
|--------------------|----------------|-----------------|--8---------------|
|--------------------|----------------|-----------------|------------------|


 (VII) fingering   Part 3
   1                 (VII).................    4          (I)..............
   1    4           2                          3           1
   2    2           1    4   1  2  4      2    1           3    2  4  1  4

|--7----0--------|--0--------7--8--10--|--8----7--------|-------------5--7--|
|-------8--------|--8----10------------|----------------|--5----6--8--------|
|--7-------------|---------------------|-------7--------|--5----------------|
|----------------|---------------------|-------5--------|--7----------------|
|--8----7--------|--7------------------|----------------|-------------------|
|----------------|---------------------|----------------|-------------------|


                                                            .      ===
....    2           (III) (V)                         Part 4
   1    3    2        4    1    2               4                      1
        1    3  1     1    3    1  4      2     3           3      1   2

|--5---------8-----|--7----5----3--5---|--3-----5--------|-----------0-1--0--|
|-------8----------|--3----------------|-----------------|---------3---------|
|------------9-----|-------5----0------|--------5--------|--5----------2-----|
|-------9----------|------------2------|-----------------|-------------------|
|-------7----0-----|-------7-----------|--------0--------|--0----------------|
|---------------8--|--3----------------|-----------------|-------------------|


                          2    3       (V)   2
        1                 3    2        1    3           1          1
     1  2            1    1    1  4     3    1           3    4     2

|-------0----0----|--5----8----7--8--|--5-------------|--0----3-----1----|
|----1--1---------|------------------|-------8--------|--1-------0-------|
|-------2---------|-------9----7-----|--5-------------|-------------2----|
|-----------------|------------5-----|--7----9--------|-------------0----|
|-----------------|-------7----------|-------7--------|--3---------------|
|-----------------|------------------|----------------|------------------|


        1                     1                               1
   2    2    3       3        2       2  3     2     3    2   2

|--0--------------|--0-------------|--------------------|----------------|
|------------3----|-----------1----|-----------0--------|-----1----------|
|--0----2---------|--0--------2----|-----------0--------|-----2----------|
|--2----3---------|----------------|--------0--2--0-----|----------------|
|-----------------|--3--------0----|--2--3-----------3--|--2--0----------|
|-----------------|----------------|--------------------|----------------|


Part 5                ===                         4       2
  (I)......................             2    2    3       3    1  1  2
                      2 4 3       3     1    1    1       1    1  1  3

|----------------|--------5----0-----|--5----7---------|-------5--7--8----|
|--5--------5----|----6-8------0-----|------------9----|--8---------------|
|--5--------5----|-------------------|--5----7---------|-------5--7--9----|
|----------------|--------7-------7--|-------0----9----|--9---------------|
|----------------|-------------------|------------7----|--7---------------|
|----------------|-------------------|-----------------|------------------|


(V)....................................                          ===        End.
                                           3    1                         4
   4    3     4       3  4     2  4        2    2    4  4     2  4 1 4    1

|--7-------5--7----|-----------------5--|--7---------5--5--|-----3-1-3----5---||
|------------------|--5-----5--6--8-----|------------------|--0---------------||
|-------7----------|--5--7--------------|--0---------------|--------------2---||
|-------5----------|--7-----------------|-------7----------|--2---------------||
|------------------|--------------------|--7------------0--|--------------0---||
|------------------|--------------------|-------8----------|------------------||


NOTE: If you've got or know where other lute works can be found please Mail me.
      
      Thank you.


Tap to rate this tab
# A B C D E F G H I J K L M N O P Q R S T U V W X Y Z