Song name
# A B C D E F G H I J K L M N O P Q R S T U V W X Y Z

Henry Tudor - Pastime With Good Company tab

Pastime with Good Company - Henry Tudor (King Henry VIII) (1491-1547)

Tabledited by - Hamilcar

Tuning: E A D F# B E   -   Time Signature: 4/4 

 |       |       |       |        |       |       |       |
|3-----------3---3-----------3---|2-----3-2---0-------------------|
|0-----------0---0-----------0---|------0---------3-----------3---|
|--------------------------------|3-------3---1---0-----------0---|
|2-----------2---2---------------|0-----------2-------------------|
|----------------------------2---|----------------2-----------2---|
|--------------------------------|--------------------------------|

 |       |       |       |        |       |       |       |
|3-----------3---2-----------0---|----0-----------0--------------||
|0-----------0-------------------|3-------4-------0-------------||
|----------------3-----------1---|0---1---0-------1--------------||
|----------------0-----------2---|-------------------------------||
|--------------------------------|2---3---2---------------------||
|3-----------3-------------------|----------------0--------------||

 |       |       |       |        |       |       |       |
|0-------2-------3---------------|0-------2-------3-----------3---|
|----------------0-----------3---|----------------0-----------0---|
|1-------3-----------------------|1-------3-----------------------|
|--------------------------------|--------------------------------|
|3-------0-----------------------|3-------0-----------------------|
|----------------3-----------3---|----------------3-----------3---|

 |       |       |       |        |       |       |       |
|5-----3-2---0-------------------|0-------2-------3-----------3---|
|------0---------3-----------3---|----------------0-----------0---|
|3-------3---1---0-----------0---|3-------3-----------------------|
|0-----------2-------------------|--------------------------------|
|----------------2-----------2---|3-------0-----------------------|
|--------------------------------|----------------3-----------3---|

 |       |       |       |        |       |       |       |
|0-------2-------3-----------3---|2---0---0-------0--------------||
|----------------0-----------0---|------------4---0--------------||
|3-------3-----------------------|3---1---0-------2--------------||
|----------------------------2---|-------------------------------||
|3-------0-----------------------|0---3---2----------------------||
|----------------3---------------|----------------0--------------||

Tap to rate this tab
# A B C D E F G H I J K L M N O P Q R S T U V W X Y Z