Song name
# A B C D E F G H I J K L M N O P Q R S T U V W X Y Z

Henry Viii - Greensleeves tab

Greensleeves By: Miscellaneous

	My first tab, so donít be harsh. Guitar 1 is done on an acoustic-electric Nylon string
guitar. Guitars 2-4 are all electric. Every guitar has a little reverb, set to either
3-5, guitars 2-4 are all in a distortion channel, and all guitars have a delay effect. 
Also, there is a fifth guitar that does chords, and the only setting is reverb. Note: Got
lazy. All of guitar 1 is plucked as octaves with pointer finger as lowest note. Also, 
all of Guitar 1 can be tremolo picked, which sounds uber.



Figure 1

Guitar 1-Acoustic-electric(Plucked)
E|---------------------------------------------|
B|---8-10-12-13-12-10--------7-8---------7-----|
G|-9------------------11-7-9-----9-9-8-9---8---|
D|-------------------------------------------9-|
A|---------------------------------------------|
E|---------------------------------------------|

E|----------------------------------------------|
B|---8-10-12-13-12-10---------------------------|
G|-9------------------11-7-9-11-12-11-9-8-6-8-9-|
D|----------------------------------------------|
A|----------------------------------------------|
E|----------------------------------------------|

Figure 2

Guitar 2
(repeat guitar 1 but with distortion.

Guitar 3(1st Harmony)
E|---------------7-8-7---------------------|
B|---8-----------------10-8-7--8-----------|
G|-9---7--9-------------------9-7------8-9-|
D|-------9--10-9------------------9-10-----|
A|-----------------------------------------|
E|-----------------------------------------|

Guitar 4(2nd Harmony)
E|---10-------------10-------------------|
B|-12-------12----12---------------------|
G|-----11-11--12-------11-11-9-11-12-----|
D|--------------13-----------------------|
A|---------------------------------------|
E|---------------------------------------|

Figure 3

Guitar 2
E|----------------------------------------------|
B|-15-15-13-12----------------------------------|
G|------------14-11-----11-12-----------11------|
D|-----------------12-14-----14-14-13-14--13----|
A|-------------------------------------------14-|
E|----------------------------------------------|



E|-------------------------------------------------|
B|-15-15-14-12-------------------------------------|
G|------------14-11-----11-12-11-------------------|
D|-----------------12-14--------14-13-11-13-14-----|
A|-------------------------------------------------|
E|-------------------------------------------------|

Guitar 3(1st Harmony)
E|---------------7-8-7---------------------------|
B|--8-8-----------------10-8-7-8-8---------------|
G|-----7--9------------------------7-------------|
D|-------9--10-9---------------------9-10-9------|
A|-----------------------------------------7-7---|
E|-----------------------------------------------|

Figure 4

Guitar 2
E|---------------------------------------------|
B|---8-10-12-13-12-10--------7-8---------7-----|
G|-9------------------11-7-9-----9-9-8-9---8---|
D|-------------------------------------------9-|
A|---------------------------------------------|
E|---------------------------------------------|

E|----------------------------------------------|
B|---8-10-12-13-12-10---------------------------|
G|-9------------------11-7-9-11-12-11-9-8-6-8-9-|
D|----------------------------------------------|
A|----------------------------------------------|
E|----------------------------------------------|

Guitar 3

E|---------------7-8-7---------------------|
B|---8-----------------10-8-7--8-----------|
G|-9---7--9-------------------9-7------8-9-|
D|-------9--10-9------------------9-10-----|
A|-----------------------------------------|
E|-----------------------------------------|


Fragment 2 Chords

Emin Gm  Dm  Bmin Emin Cm  Bm  Bm

Emin  Gm  Dm  Bmin  Cm  Bm   Emin  Emin


Fragment 3 Chords

Gm  Gm  Dm  Bmin Emin Cm  Bm  Bm

Gm   Gm   Dm   Bmin  Cm   Bm   Em   Em
Tap to rate this tab
 
# A B C D E F G H I J K L M N O P Q R S T U V W X Y Z