Henry Viii - Greensleeves tab

Greensleeves (Opening) - By Jake W. Ashton. A.K.A. xAvengedDarkx.

Friday:- 01/04/2011.

Note:-
It's still a little sketchy, and i intend on completing the whole song, but this 
is my first tab. Enjoy :D


Tuning:-Standard-


|E|---------------------------------------|
|B|-----1---3---5---6-5---3---------------|
|G|-2-------------------------4--0--------|
|D|---------------------------------------|
|A|-----0-------0---------0------0--------|
|E|---------------------------------------|
    Al-as, my love, you do me wrong,
 
  |---------------------------------------|
  |---------------------------------------|
  |-2-4---5---2-2---0-2---4---0-----------|
  |------------------------------2--------|
  |-------0---------------0------0--------|
  |---------------------------------------|
    To cast me off discourteously.

  |---------------------------------------|
  |-----1---3---5---6-5---3---------------|
  |-2-------------------------4--0--------|
  |---------------------------------------|
  |-----0-------0---------0------0--------|
  |---------------------------------------|
    For I have loved you well and long,

  |---------------------------------------|
  |-3---1---0-----------------------------|
  |-------------4---0---2---2-------------|
  |---------------------------------------|
  |-0-----------0-----------0-------------|
  |---------------------------------------|
    Delighting in your company.
Tap to rate this tab
 
# A B C D E F G H I J K L M N O P Q R S T U V W X Y Z