Song name
# A B C D E F G H I J K L M N O P Q R S T U V W X Y Z

Henry Wolfe - Someone Else chords

Highlighted       Show chord diagrams
Got these chords off Henry Wolfe himself (Thanks Henry!) I've probably put them in the 
wrong places so any improvements greatly appreciated!

Capo: 4th Fret



For the intro make a G-chord shape but put your index finger on the second fret of the 
top string.
Intro:


|--3---3-----3---2---2-----2---0---0-----0---2---2-----2-|
|--------------------------------------------------------|
|--------------------------------------------------------|
|----0-----0-------0-----0-------0-----0-------0-----0---|
|--------------------------------------------------------|
|--------3-------------3-------------3-------------3-----|



|--3---3-----3---2---2-----2---0---0-----0-------|
|--------------------------------------------3---|
|------------------------------------------------|
|----0-----0-------0-----0-------0-----0---------|
|------------------------------------------------|
|--------3-------------3-------------3-----------|

G                           Am
I called a psychic on the phone today
        D7                 G
It's something I rarely do
                     A9
But for reasons that I can't explain
 Cmaj7                     G
I feel I am splitting in two


         C              B7
I don't know who I have been
Em7                         A7
There's a stranger in my skin


         C
I used to be somebody
         Am
I used to be somebody
          G
Now I am someone else

G
I took a look at my reflection
            Am
I didn't recognize myself
                    D7              G
The person in the mirror was a shell
G                         A9
Hollow on the inside; as empty as a bell
    Cmaj7                     G
And I can hear it ringing out for miles around

C                  B7
My friends say I need help
Em7                 A7
  But I know I'm not crazy

             C
I am only someone else
   Am
Wahoho
                   G
I am someone else

          C
I used to be somebody
          Am
I used to be somebody
        G
Now I am someone else


 This is part is a solo, Just play the chords from the verse:
 G Am D7 G A9 Cmaj7 G

C                    B7
And time takes a toll
Em7
  I feel the seasons change
A7
I hear the thunder roll

         C
I used to be somebody
        Am
I used to be somebody
         G
Now I am someone else

         C
I used to be somebody
        Am
I used to be somebody
         G
Now I am someone else
Tap to rate this tab
 
# A B C D E F G H I J K L M N O P Q R S T U V W X Y Z