Song name
# A B C D E F G H I J K L M N O P Q R S T U V W X Y Z

Hepatite X - Ya Tellement De Choses tab

Y'a tellement de choses - hépatite x

accords:
B = x244xx
F#= 244xxx
C#= x466xx
G#= 466xxx

Intro :

e----------------------------------------|
b----------------------------------------|
g----------------------------------------|   x4
d----------------------------------------|
a-----------2-4-2-----------4-6-4--------|
e---4-4---4---------2-2---2--------------|



Verse 1:

e----------------------------------------|
b----------------------------------------|
g----------------------------------------|   x4
d----------------------------------------|
a-----------2-4-2-----------4-6-4--------|
e---4-4---4---------2-2---2--------------|


Pourquoi penser puisqu'on va tout oublier ?

Pourquoi construire puisqu'on va tout détruire ?

Pourquoi se marier puisqu'on va divorcer ?

Pourquoi se laver puisque demain on va puer ?


Chorus:
 G#                   B                  F#
   Y'a tellement de choses qui servent à rien
                      C#                 G#
   Y'a tellement de choses qui servent à rien
                      B                     F#
   Y'a tellement de choses que je comprends rien
                      C#                     G#
   Y'a tellement de choses que je comprends rien
                      B                       F#         C#          G#
   Y'a tellement de choses dont je comprends pas l'utilité...l'utilité
                      B                 F#                    C#    G#
   Y'a tellement de choses qui sont faites pour nous faire chier !

 Interlude:

 Guitare 1:

e-----------------------------------|
b-----------------------------------|
g--444-----666----------------------| x2
d--444-444-666-666------------------|
a--222-444-444-666------------------|
e------222-----444------------------|
Guitare 2:

e----------------------------------------|
b----------------------------------------|
g----------------------------------------|   x2
d----------------------------------------|
a-----------2-4-2-----------4-6-4--------|
e---4-4---4---------2-2---2--------------|

Verse 2:

e----------------------------------------|
b----------------------------------------|
g----------------------------------------|   x4
d----------------------------------------|
a-----------2-4-2-----------4-6-4--------|
e---4-4---4---------2-2---2--------------|


Pourquoi s'aimer si c'est pour se détester ?

Pourquoi se toucher si c'est pour se frapper ?

Pourquoi bosser si c'est pour se faire virer ?

Pourquoi ?   ...      Pourquoi ?

 CHORUS


 Interlude:

e----------------------------------------|
b----------------------------------------|
g----------------------------------------|   x2
d----------------------------------------|
a-----------2-4-2-----------4-6-4--------|
e---4-4---4---------2-2---2--------------|


Guitare 1:
e-2-4-2-4-2-4-2-4-2-4-2-4-2-4-2-4--------|
b----------------------------------------|
g----------------------------------------|   x2
d----------------------------------------|
a----------------------------------------|
e----------------------------------------|

Guitare 2:
e----------------------------------------|
b----------------------------------------|
g----------------------------------------|   x2
d----------------------------------------|
a---2--------4--------2---------4--------|
e-------4--------6---------4---------6---|

 Y'a tellement de choses qui sont faites pour nous faire chier...pour nous faire chier  x2

 Verse 3:

 Y'a tellement de choses qui sont faites pour nous faire chier (pour nous faire chier) x2
p.m * :
e--------------------------------------|
b--------------------------------------|
g--------------------------------------|   x2
d--2----------66666666-----------------|
a--4-44444444-44444444-66666666--------|
e----22222222----------44444444--------|

CHORUS x2


e-----4--------------------5-4-3-2-------|
b----------------------------------------|
g----------------------------------------|
d----------------------------------------|
a----------------------------------------|
e----------------------------------------|

End !


    Tab by Wissal Mimouni !
Tap to rate this tab
 
# A B C D E F G H I J K L M N O P Q R S T U V W X Y Z