Song name
# A B C D E F G H I J K L M N O P Q R S T U V W X Y Z

Hepcat - Country Time tab

Tuning:standard
tab by Alp

Intro Riff:

e-------2-2---------------------2-2--------------------|
B----2-4---4-0-4/5-5-4-------2-4---4-0-1/2-------------|
G--4------------------------4-------------4-1----------|
D--------------------------------------------4-1-------|
A------------------------------------------------------|
E------------------------------------------------------|

e-------2-2------------------2-2----------------|
B----2-4---4-0-5-5-5-4----2-4---4-0-1/2---------|
G---4--------------------4-------------4-1------|
D-----------------------------------------4-1---|
A-----------------------------------------------|
E-----------------------------------------------|

The Verese and chours pattern is just B E B B F# B all major chords.
Play a ska beat your good to go
Tap to rate this tab
 
# A B C D E F G H I J K L M N O P Q R S T U V W X Y Z