Song name
# A B C D E F G H I J K L M N O P Q R S T U V W X Y Z

Her Bright Skies - Pretty Things tab

Listened to this album for the first time and this song caught my ear so I wanted to work it out.
I looked at the other tab for this song and there's a few mistakes but this is 
100% correct. Enjoy!

Tuning: Drop C#

0:00-0:17

Guitar 1

|------------------------------|
|------------------------------|
|-----------------1------------|
|-----7-----7-----------4-4/6--| 
|---4-----0-----2--------------|
|-4-----0-----2-----0-0--------|

0:17-1:25

Guitar 2 (Palm Muted)

|-------2---5---4--0---0---0---0h2--|
|-2---2---2---2------2---2---2------|
|-----------------------------------|
|-----------------------------------|
|-----------------------------------|
|-----------------------------------|


If you listen closely, you can hear guitar 2 is played on the e and B strings rather than G and B.
Tap to rate this tab
 
# A B C D E F G H I J K L M N O P Q R S T U V W X Y Z