Song name
# A B C D E F G H I J K L M N O P Q R S T U V W X Y Z

Her Bright Skies - Little Miss Obvious tab

-------------------------------------------------------------------------------
                             Little Miss Obvious - Her Bright skies
-------------------------------------------------------------------------------
Tabbed by: kerk12
E-mail: kerk12GR@gmail.com

Tuning: Drop C#[C#,G#,C#,F#,A#,D#]

---Legend---
, = Palm mute

D#|-----------------------------------------------| <-- Repeat two times.
A#|-----------------------------------------------|
F#|-----------------------------------------------|
C#|--4-4-4-4-4-4-0-0-0-0-0-0-2-2-2-2-2-2-2-2-2-2--|
G#|--4-4-4-4-4-4-0-0-0-0-0-0-2-2-2-2-2-2-2-2-2-2--|
C#|--4-4-4-4-4-4-0-0-0-0-0-0-2-2-2-2-2-2-2-2-2-2--|
PM|__,_,_,_,_,_,_,_,_,_,_,_,_,_,_,_,_,_,_,_,_,_,__|


D#|-----------0---------------2---------------4--------------4------|
A#|-----3---------------3---------------3---------------3-----------|
F#|--2-----2-----2---2-----2-----2---2-----2-----2---2-----2----2---|
C#|-----------------------------------------------------------------|
G#|-----------------------------------------------------------------|
C#|-----------------------------------------------------------------|

D#|-----------0---------------2---------------4--------------4------|
A#|-----3---------------3---------------3---------------3-----------|
F#|--2-----2-----2---2-----2-----2---2-----2-----2---2-----2----2---|
C#|-----------------------------------------------------------------|
G#|-----------------------------------------------------------------|
C#|-----------------------------------------------------------------|
Tap to rate this tab
 
# A B C D E F G H I J K L M N O P Q R S T U V W X Y Z