Song name
# A B C D E F G H I J K L M N O P Q R S T U V W X Y Z

Her Bright Skies - Working Class Punx tab

-------------------------------------------------------------------------------
                             Working Class Punx
-------------------------------------------------------------------------------
Artist: Her Bright Skies
Album: Rivals


Tuning: Dropped C# [ Db Ab Db Gb Bb eb ]
   
Palm Mute          = *
Stress Note/Accent = >
Slide Down         = \
Slide up           = /
Hammer On          = h
Pull Off           = p

Rhythm Guitar - Pete

Effects: Guitar I  - Heavy Distortion
        
Intro

Begins With Feedback (0:00 - 0:09)

|---------------------------------------------------------|
|---------------------------------------------------------|
|---------------------------------------------------------|
|---------------------------------------------------------|
|-5-5-0-1---------------------5-5-0-1-------------3-----0-|
|----------0-3--0-3-5--0-3-0-----------0-3--0-3-5---5-3-0-| x2

Verse

|---------------------------------------------------------------|
|---------------------------------------------------------------|
|-5-5---------------3-3-2-2---------5-5-------------3-3-5-5-----|
|-5-5-3-0h3-3-h5-5--3-3-2-2-3-p0-0--5-5-3-0h3-3-h5--3-3-5-5-0-0-|
|-3-3-3-0h3-3-h5-5--1-1-0-0-3-p0-0--3-3-3-0h3-3-h5--1-1-3-3-0-0-|
|-----3-0h3-3-h5-5----------3-p0-0------3-0h3-3-h5----------0-0-|

|---------------------------------------------------------------|
|---------------------------------------------------------------|
|-5-5---------------3-3-2-2---------5-5-------------3-3-5-5-----|
|-5-5-3-0h3-3-h5-5--3-3-2-2-3-p0-0--5-5-3-0h3-3-h5--3-3-5-5-0~--|
|-3-3-3-0h3-3-h5-5--1-1-0-0-3-p0-0--3-3-3-0h3-3-h5--1-1-3-3-0~--|
|-----3-0h3-3-h5-5----------3-p0-0------3-0h3-3-h5----------0~--| 

Pre-Chorus

|-----------------|
|-----------------|
|-----------------|
|-0-0-0-0-0-0-0-0-|
|-0-0-0-0-0-0-0-0-|
|-0-0-0-0-0-0-0-0-|
  * * * * * * * *

Chorus

|---------------------------------------------------------------|
|---------------------------------------------------------------|
|--------3-3-3-3--------------------------------3-3-3-3-5-5-5-5-|
|-0--0-0-3-3-3-3-3-3-3-3-5-5-5-5-0--0-0-5-5-5-5-3-3-3-3-5-5-5-5-|
|-0--0-0-1-1-1-1-3-3-3-3-5-5-5-5-0--0-0-5-5-5-5-1-1-1-1-3-3-3-3-|
|-0--0-0---------3-3-3-3-5-5-5-5-0--0-0-5-5-5-5-----------------|

|--------------------------------------------------|
|--------------------------------------------------|
|--------3-3-3-3-----------------3--3-3-3-3-3-3-2~-|
|-0--0-0-3-3-3-3-3-3-3-3-5-5-5-5-3--3-3-3-3-3-3-2~-|
|-0--0-0-1-1-1-1-3-3-3-3-5-5-5-5-1--1-1-1-1-1-1-0~-|
|-0--0-0---------3-3-3-3-5-5-5-5-------------------|

Pre-Verse

|--------------------------------------------------------------|
|--------------------------------------------------------------|
|--------------------------------------------------------------|
|-0~-------------------------------------------------------0-0-|
|-0~-5-5-0-1---------------------5-5-0-1-------------3-----0-0-|
|-0~----------0-3--0-3-5--0-3-0-----------0-3--0-3-5---5-3-0-0-|

Verse

|---------------------------------------------------------------|
|---------------------------------------------------------------|
|-5-5---------------3-3-2-2---------5-5-------------3-3-5-5-----|
|-5-5-3-0h3-3-h5-5--3-3-2-2-3-p0-0--5-5-3-0h3-3-h5--3-3-5-5-0-0-|
|-3-3-3-0h3-3-h5-5--1-1-0-0-3-p0-0--3-3-3-0h3-3-h5--1-1-3-3-0-0-|
|-----3-0h3-3-h5-5----------3-p0-0------3-0h3-3-h5----------0-0-|

|-------------------------------------------------------------|
|-------------------------------------------------------------|
|-5-5---------------3-3-2-2---------5-5-------------3-3-3/5---|
|-5-5-3-0h3-3-h5-5--3-3-2-2-3-p0-0--5-5-3-0h3-3-h5--3-3-3/5---|
|-3-3-3-0h3-3-h5-5--1-1-0-0-3-p0-0--3-3-3-0h3-3-h5--1-1-1/3---|
|-----3-0h3-3-h5-5----------3-p0-0------3-0h3-3-h5------------| 

Chorus

|---------------------------------------------------------------|
|---------------------------------------------------------------|
|--------3-3-3-3--------------------------------3-3-3-3-5-5-5-5-|
|-0--0-0-3-3-3-3-3-3-3-3-5-5-5-5-0--0-0-5-5-5-5-3-3-3-3-5-5-5-5-|
|-0--0-0-1-1-1-1-3-3-3-3-5-5-5-5-0--0-0-5-5-5-5-1-1-1-1-3-3-3-3-|
|-0--0-0---------3-3-3-3-5-5-5-5-0--0-0-5-5-5-5-----------------|

|---------------------------------------------------------------|
|---------------------------------------------------------------|
|--------3-3-3-3--------------------------------3-3-3-3-5-5-5-5-|
|-0--0-0-3-3-3-3-3-3-3-3-5-5-5-5-0--0-0-5-5-5-5-3-3-3-3-5-5-5-5-|
|-0--0-0-1-1-1-1-3-3-3-3-5-5-5-5-0--0-0-5-5-5-5-1-1-1-1-3-3-3-3-|
|-0--0-0---------3-3-3-3-5-5-5-5-0--0-0-5-5-5-5-----------------|

|---------------------------------------------------------------|
|---------------------------------------------------------------|
|--------3-3-3-3--------------------------------3-3-3-3-5-5-5-5-|
|-0--0-0-3-3-3-3-3-3-3-3-5-5-5-5-0--0-0-5-5-5-5-3-3-3-3-5-5-5-5-|
|-0--0-0-1-1-1-1-3-3-3-3-5-5-5-5-0--0-0-5-5-5-5-1-1-1-1-3-3-3-3-|
|-0--0-0---------3-3-3-3-5-5-5-5-0--0-0-5-5-5-5-----------------|

|--------------------------------------------------|
|--------------------------------------------------|
|--------3-3-3-3-----------------3--3-3-3-3-3-3-2~-|
|-0--0-0-3-3-3-3-3-3-3-3-5-5-5-5-3--3-3-3-3-3-3-2~-|
|-0--0-0-1-1-1-1-3-3-3-3-5-5-5-5-1--1-1-1-1-1-1-0~-|
|-0--0-0---------3-3-3-3-5-5-5-5-------------------|

Solo

|-----------------------------------------------------------------|
|-----------------------------------------------------------------|
|---------3-3-3-3---------------------------------3-3-3-3-5-5-5-5-|
|-0-0-0-0-3-3-3-3-3-3-3-3-5-5-5-5-0-0-0-0-5-5-5-5-3-3-3-3-5-5-5-5-|
|-0-0-0-0-1-1-1-1-3-3-3-3-5-5-5-5-0-0-0-0-5-5-5-5-1-1-1-1-3-3-3-3-|
|-0-0-0-0---------3-3-3-3-5-5-5-5-0-0-0-0-5-5-5-5-----------------|

|-----------------------------------------------------------------|
|-----------------------------------------------------------------|
|---------3-3-3-3---------------------------------3-3-3-3-5-5-5-5-|
|-0-0-0-0-3-3-3-3-3-3-3-3-5-5-5-5-0-0-0-0-5-5-5-5-3-3-3-3-5-5-5-5-|
|-0-0-0-0-1-1-1-1-3-3-3-3-5-5-5-5-0-0-0-0-5-5-5-5-1-1-1-1-3-3-3-3-|
|-0-0-0-0---------3-3-3-3-5-5-5-5-0-0-0-0-5-5-5-5-----------------|

Bridge

|----------------------------------------------------|
|----------------------------------------------------|
|-7--7-7-7-7-7--5-5-5--5-5---------------------------|
|-7--7-7-7-7-7--5-5-5--5-5--3--3-3-3-3-3--5-5-5--5-5-|
|-5--5-5-5-5-5--3-3-3--3-3--3--3-3-3-3-3--5-5-5--5-5-|
|---------------------------3--3-3-3-3-3--5-5-5--5-5-|
     *   * *    * *    *       *   * *    * *    *
|-------------------------------------------------------------|
|-----------------------------------------3-3-3-3-5-5-5-5-7\--|
|-7--7-7-7-7-7--101010-1010---------------3-3-3-3-5-5-5-5-7\--|
|-7--7-7-7-7-7--101010-1010-5--5-5-5-5-5--1-1-1-1-3-3-3-3-5\--|
|-5--5-5-5-5-5--8-8-8--8-8--5--5-5-5-5-5----------------------|
|---------------------------5--5-5-5-5-5----------------------|
     *   * *    * *    *       *   * *    * * * * * * * *    
 
 Working Class Punx....
|-----------------------------------------------------|
|-----------------------------------------------------|
|-----------------------------------------------------|
|---------------------3-3-3-3-3-3-3-3-5-5-5-5-5-5-5-5-|
|---------------------3-3-3-3-3-3-3-3-5-5-5-5-5-5-5-5-|
|---------------------3-3-3-3-3-3-3-3-5-5-5-5-5-5-5-5-|

|------------------------------------------------------------------|
|------------------------------------------------------------------|
|-7-7-7-7-7-7-7-7-1010101010101010-----------------3-3-3-3-5-5-5-5-|
|-7-7-7-7-7-7-7-7-1010101010101010-5-5-5-5-5-5-5-5-3-3-3-3-5-5-5-5-|
|-5-5-5-5-5-5-5-5-8-8-8-8-8-8-8-8--5-5-5-5-5-5-5-5-1-1-1-1-3-3-3-3-|
|----------------------------------5-5-5-5-5-5-5-5-----------------|

Chorus

|---------------------------------------------------------------|
|---------------------------------------------------------------|
|--------3-3-3-3--------------------------------3-3-3-3-5-5-5-5-|
|-0--0-0-3-3-3-3-3-3-3-3-5-5-5-5-0--0-0-5-5-5-5-3-3-3-3-5-5-5-5-|
|-0--0-0-1-1-1-1-3-3-3-3-5-5-5-5-0--0-0-5-5-5-5-1-1-1-1-3-3-3-3-|
|-0--0-0---------3-3-3-3-5-5-5-5-0--0-0-5-5-5-5-----------------|

|--------------------------------------------------|
|--------------------------------------------------|
|--------3-3-3-3-----------------3--3-3-3-3-3-3-2~-|
|-0--0-0-3-3-3-3-3-3-3-3-5-5-5-5-3--3-3-3-3-3-3-2~-|
|-0--0-0-1-1-1-1-3-3-3-3-5-5-5-5-1--1-1-1-1-1-1-0~-|
|-0--0-0---------3-3-3-3-5-5-5-5-------------------|

Outro

|------------------------------------------------------------|
|------------------------------------------------------------|
|------------------------------------------------------------|
|-0~---------------------------------------------------------|
|-0~-5-5-0-1---------------------5-5-0-1-------------3-----0-|
|-0~----------0-3--0-3-5--0-3-0-----------0-3--0-3-5---5-3-0-|

|---------------------------------------------------------|
|---------------------------------------------------------|
|---------------------------------------------------------|
|-------------------------------------------------------0-|
|-5-5-0-1---------------------5-5-0-1-------------3-----0-|
|----------0-3--0-3-5--0-3-0-----------0-3--0-3-5---5-3-0-|


Enjoy and please rate!
C.Bones
Tap to rate this tab
# A B C D E F G H I J K L M N O P Q R S T U V W X Y Z