Song name
# A B C D E F G H I J K L M N O P Q R S T U V W X Y Z

Her Bright Skies - Heartbreaker tab

Tabbed by: Joshua Garcia (joshuag523@aol.com)

Tabs for the song: Heartbreaker by Her Bright Skies
Please rate and let me know if you have any corrections. Thank you.


Tuning: Drop C# (C# G# C# F# A# D#)


Intro
Guitar 1:
D#||-------10h12--------10h12--------10h12--------|
A#||---------------------------------------10h12--|
F#||--12-9-------9-12-9-------9-12-9--------------|
C#||----------------------------------------------| x4
G#||----------------------------------------------|
C#||----------------------------------------------|


D#||-------10h12--------10h12---------|
A#||----------------------------------|
F#||--12-9-------9-12-9-------9-12-9--|
C#||----------------------------------|
G#||----------------------------------|
C#||----------------------------------|


Guitar 2:
D#||--------------------------------------------------------|
A#||--------------------------------------------------------|
F#||-------------------------------4~----4~----5~--5555555--|
C#||--2---x-5---x-0~--0000000------5~--x-5~--x-5~--5555555--|
G#||--2---x-5---x-0~--0000000------2~--x-2~--x-3~--3333333--|
C#||--2---x-5---x-0~--0000000-------------------------------|


D#||--------------------------------------------------------|
A#||--------------------------------------------------------|
F#||-------------------------------4~----4~----5~------5-5--|
C#||--2---x-5---x-0~--0000000------5~--x-5~--x-5~------5-5--|
G#||--2---x-5---x-0~--0000000------2~--x-2~--x-3~------3-3--|
C#||--2---x-5---x-0~--0000000-------------------------------|



Pre-Verse
Guitar 1/2:
D#||-------------------------------------------------------------------|
A#||-------------------------------------------------------------------|
F#||----------------------------------4-4-4-4-4-4-4-5-5-5-5-5-5--------|
C#||--2-2-2-5-5-5-0-0-0-0-0-0-0-0-0-0-5-5-5-5-5-5-5-5-5-5-5-5-5-5-5-5--|
G#||--2-2-2-5-5-5-0-0-0-0-0-0-0-0-0-0-2-2-2-2-2-2-3-3-3-3-3-3-3-5-5-5--|
C#||--2-2-2-5-5-5-0-0-0-0-0-0-0-0-0-0---------------------------5-5-5--|


Guitar 1:
D#||-------10h12--------10h12--------10h12--------|
A#||---------------------------------------10h12--|
F#||--12-9-------9-12-9-------9-12-9--------------|
C#||----------------------------------------------| x2
G#||----------------------------------------------|
C#||----------------------------------------------|


Guitar 1 (Dub):
D#||--------14h15----------14h15----------14h15--------|
A#||--15-------------15-------------15----------15h17--|
F#||---------------------------------------------------|
C#||-----14-------14----14-------14----14--------------| x2
G#||---------------------------------------------------|
C#||---------------------------------------------------|


Guitar 2:
D#||-----------------------------------------------------------------|
A#||-----------------------------------------------------------------|
F#||----------------------------------4~----4~----5~-----------------|
C#||--2-2-2-5-5-5-0-0-0-0-0-0-0-0-0-0-5~--x-5~--x-5~--5-5-5-5-5-5-5--|
G#||--2-2-2-5-5-5-0-0-0-0-0-0-0-0-0-0-2~--x-2~--x-3~--3-3-3-3-5-5-5--|
C#||--2-2-2-5-5-5-0-0-0-0-0-0-0-0-0-0-------------------------5-5-5--|
                                                      . . . .


Pre-Chorus
Guitar 1/2:
D#||-----------------------------------------------------------------------|
A#||-----------------------------------------------------------------------|
F#||-----------------------------------------------------------------------|
C#||--5\----------------------------------5-5-5-5-5-5-5-5-5-5-5-5-5--------|
G#||--5\--2-2-2-5-5-5-0-0-0-0-0-0-0-0-0-0-2-2-2-2-2-2-3-3-3-3-3-3-3-5-5-5--|
C#||--5\--2-2-2-5-5-5-0-0-0-0-0-0-0-0-0-0---------------------------5-5-5--|
          . . . . . . . . . . . . . . . . . . . . . . . . . . . . . . . .


D#||---------------------------------------------------------|
A#||---------------------------------------------------------|
F#||--------------------------------4~----4~----5~------5-5--|
C#||--------------------------------5~--x-5~--x-5~------5-5--|
G#||--2-2-5-5-5-0-0-0-0-0-0-0-0-0-0-2~--x-2~--x-3~------3-3--|
C#||--2-2-5-5-5-0-0-0-0-0-0-0-0-0-0--------------------------|
      . . . . . . . . . . . . . . .



Chorus
Guitar 1/2:
D#||-------------------------------------------------------------------|
A#||-------------------------------------------------------------------|
F#||----------------------------------4-4-4-4-4-4-4-5-5-5-5-5-5-5------|
C#||--2-2-2-5-5-5-0-0-0-0-0-0-0-0-0-0-5-5-5-5-5-5-5-5-5-5-5-5-5-5-5-5--|
G#||--2-2-2-5-5-5-0-0-0-0-0-0-0-0-0-0-2-2-2-2-2-2-3-3-3-3-3-3-3-5-5-5--|
C#||--2-2-2-5-5-5-0-0-0-0-0-0-0-0-0-0---------------------------5-5-5--|


D#||-----------------------------------------------------------------|
A#||-----------------------------------------------------------------|
F#||----------------------------------4~----4~----5~-----------------|
C#||--2-2-2-5-5-5-0-0-0-0-0-0-0-0-0-0-5~--x-5~--x-5~--5-5-5-5-5-5-5--|
G#||--2-2-2-5-5-5-0-0-0-0-0-0-0-0-0-0-2~--x-2~--x-3~--3-3-3-3-5-5-5--|
C#||--2-2-2-5-5-5-0-0-0-0-0-0-0-0-0-0-------------------------5-5-5--|
                                                      . . . .


Verse
Guitar 1/2:
D#||-----------------------------------------------------------------|
A#||-----------------------------------------------------------------|
F#||-----------------------------------------------------------------|
C#||--5-5-5-5-5-5-5-4-4-4-4-4-4-4-4-----0-----0---0-----0-----0---0--|
G#||--7-7-7-7-7-7-7-5-5-5-5-5-5-5-5---3-3-3-3-3-3-3-3-3-3-3-3-3-3-3--|
C#||-----------------------------------------------------------------|
      . . . . . . . . . . . .   .     .   . .   .   . .   . .   .

D#||-------------------------------------------------------------------|
A#||-------------------------------------------------------------------|
F#||-------------------------------------------------------------------|
C#||----5-5-5-5-5-5-5-4-4-4-4-4-4-4-4-----0-----0---0-----0-----0---0--|
G#||--0-7-7-7-7-7-7-7-5-5-5-5-5-5-5-5---3-3-3-3-3-3-3-3-3-3-3-3-3-3-3--|
C#||--0----------------------------------------------------------------|
      . . . . . . . . . . . . .   .     .   . .   .   . .   . .   .


Guitar 1:
D#||------------------------------------------------------------------------------|
A#||--12------10------7------8------7-8-7-8-7------7------8------8------8p7----7--|
F#||--12------12------9------9--------------7------7------7------7------7------7--|
C#||------------------------------------------------------------------------------|
G#||------------------------------------------------------------------------------|
C#||------------------------------------------------------------------------------|


D#||--------------------------------------------------------------------------|
A#||--12------10------7------8-7-8-10-8-7-8--9-9-9-9-9-9----------------------|
F#||--12------12------9----------------------------------5--7-7-7-9-11-12-12--|
C#||-----------------------------------------------------5--x-x-x-x-x--x--x---|
G#||-----------------------------------------------------3--5-5-5-7-9--10-10--|
C#||--------------------------------------------------------------------------|


Guitar 2:
D#||-------------------------------------------------------------------|
A#||-------------------------------------------------------------------|
F#||-------------------------------------------------------------------|
C#||----5-5-5-5-5-5-5-4-4-4-4-4-4-4-4-----0-----0---0-----0-----0---0--|
G#||--0-7-7-7-7-7-7-7-5-5-5-5-5-5-5-5---3-3-3-3-3-3-3-3-3-3-3-3-3-3-3--|
C#||--0----------------------------------------------------------------|
      . . . . . . . . . . . . .   .     .   . .   .   . .   . .   .


D#||-------------------------------------------------------------------|
A#||-------------------------------------------------------------------|
F#||------------------------------0~-----4~----4~----5--7-7-7-7-7-7-7--|
C#||----5-5-5-5-5-5-5-4-4-4-4---4~-------5~--x-5~--x-5--x-x-x-x-x-x-x--|
G#||--0-7-7-7-7-7-7-7-5-5-5-5-5~---------2~--x-2~--x-3--5-5-5-5-5-5-5--|
C#||--0----------------------------------------------------------------|
      . . . . . . . . . . . .



Pre-Chorus
Guitar 1:
D#||-------10h12--------10h12--------10h12--------|
A#||---------------------------------------10h12--|
F#||--12-9-------9-12-9-------9-12-9--------------|
C#||----------------------------------------------| x2
G#||----------------------------------------------|
C#||----------------------------------------------|


Guitar 1 (Dub):
D#||--------14h15----------14h15----------14h15--------|
A#||--15-------------15-------------15----------15h17--|
F#||---------------------------------------------------|
C#||-----14-------14----14-------14----14--------------|
G#||---------------------------------------------------|
C#||---------------------------------------------------|


Guitar 2:
D#||-------|------|
A#||-------|------|
F#||--9~\--|------|
C#||--9~\--|--2~--|
G#||--7~\--|--2~--|
C#||-------|--2~--|



Chorus
Guitar 1/2:
D#||-------------------------------------------------------------------|
A#||-------------------------------------------------------------------|
F#||----------------------------------4-4-4-4-4-4-4-5-5-5-5-5-5-5------|
C#||--2-2-2-5-5-5-0-0-0-0-0-0-0-0-0-0-5-5-5-5-5-5-5-5-5-5-5-5-5-5-5-5--|
G#||--2-2-2-5-5-5-0-0-0-0-0-0-0-0-0-0-2-2-2-2-2-2-3-3-3-3-3-3-3-5-5-5--|
C#||--2-2-2-5-5-5-0-0-0-0-0-0-0-0-0-0---------------------------5-5-5--|


D#||-----------------------------------------------------------------|
A#||-----------------------------------------------------------------|
F#||----------------------------------4~----4~----5~-----------------|
C#||--2-2-2-5-5-5-0-0-0-0-0-0-0-0-0-0-5~--x-5~--x-5~--5-5-5-5-5-5-5--|
G#||--2-2-2-5-5-5-0-0-0-0-0-0-0-0-0-0-2~--x-2~--x-3~--3-3-3-3-5-5-5--|
C#||--2-2-2-5-5-5-0-0-0-0-0-0-0-0-0-0-------------------------5-5-5--|
                                                      . . . .


D#||-------------------------------------------------------------------|
A#||-------------------------------------------------------------------|
F#||----------------------------------4~--4~--4-4-4-5~--5-5~--5--------|
C#||--2~--2~--5-5-5-0~--0-0~--0-0-0-0-5~--5~--5-5-5-5~--5-5~--5-5-5-5--| x2
G#||--2~--2~--5-5-5-0~--0-0~--0-0-0-0-2~--2~--2-2-2-3~--3-3~--3-5-5-5--|
C#||--2~--2~--5-5-5-0~--0-0~--0-0-0-0---------------------------5-5-5--|



Bridge
Guitar 1:
D#||----------------------------------------------------------------------|
A#||----------------8~---8-8--------------8-7---7-8-7------8-7---7-8-7----|
F#||-------------------------7~---7-7-7-9-----9-------7~-------9-------7--|
C#||--9-9-9-9-9-9-9-------------------------------------------------------|
G#||----------------------------------------------------------------------|
C#||----------------------------------------------------------------------|


D#||----------------------------------------------------------------|
A#||------------8~---8-8--------------8-7---7-8-7------8-7---7-8-7--|
F#||---------------------7~---7-7-7-9-----9-------7~-------9--------|
C#||--9~--9-9-9-----------------------------------------------------|
G#||----------------------------------------------------------------|
C#||----------------------------------------------------------------|


D#||--10~-----8---7h8p7---10~-----8---7h8p7------|
A#||--------8---8-------8-------8---8-------8-8--|
F#||---------------------------------------------|
C#||---------------------------------------------|
G#||---------------------------------------------|
C#||---------------------------------------------|


Guitar 2:
D#||--------------------------------------------------------------------|
A#||--------------------------------------------------------------------|
F#||----------------4~--4-4-5~--5-5~---9~--9~--9-9-9-4~--4-4-5~--5-5-5--|
C#||--5-5-5-5-5-5-5-5~--5-5-5~--5-5~---9~--9~--9-9-9-5~--5-5-5~--5-5-5--|
G#||--5-5-5-5-5-5-5-2~--2-2-3~--3-3~---7~--7~--7-7-7-2~--2-2-3~--3-3-3--|
C#||--5-5-5-5-5-5-5-----------------------------------------------------|


D#||----------------------------------------------------------------------|
A#||----------------------------------------------------------------------|
F#||----------------4~--4-4-5~--5-5~---9~--9~--9-12-12-7~--7-7~--7-12-12--|
C#||------5~--5-5-5-5~--5-5-5~--5-5~---9~--9~--9-12-12-7~--7-7~--7-12-12--|
G#||--5-5-5~--5-5-5-2~--2-2-3~--3-3~-xx7~--7~--7-10-10-5~--5-5~--5-10-10--|
C#||--5-5-5~--5-5-5-------------------------------------------------------|
      . .

D#||------------------------------------|
A#||------------------------------------|
F#||--5~---5---5---5---5---5-5-5-5-5-5--|
C#||--5~---5---5---5---5---5-5-5-5-5-5--|
G#||--3~---3---3---3---3---3-3-3-3-3-3--|
C#||------------------------------------|



Breakdown
Guitar 1/2:
D#||------------------------------------|------------------------------------|
A#||------------------------------------|-------------------------------1----|
F#||---------------0---0---0------------|---------------0---------------4b5--|
C#||--2-2---2-2--4---4---4---4-0--0--0--|--2-2---2-2--4---4-5---5-0~---------|
G#||--2-2---2-2----------------0--0--0--|--2-2---2-2--------5---5-0~--0------|
C#||--2-2---2-2----------------0--0--0--|--2-2---2-2--------5-555-0~--0------|
                               .  .  .                        ..

D#||------------------------------------|------------------------------------|
A#||------------------------------------|------------------------------------|
F#||---------------0---0---0------------|---------------0---------5~---------|
C#||--2-2---2-2--4---4---4---4-0--0--0--|--2-2---2-2--4---4-5---5-5~-----2~--|
G#||--2-2---2-2----------------0--0--0--|--2-2---2-2--------5---5-3~-----2~--|
C#||--2-2---2-2----------------0--0--0--|--2-2---2-2--------5-555--------2~--|
                               .  .  .                        ..


Interlude
Guitar 1/2:
D#||-------------------------------------------------------------------|
A#||-------------------------------------------------------------------|
F#||-------------------------------------------------------------------|
C#||----------------------------------5-5-5-5-5-5-5-5-5-5-5-5-5--------| x2
G#||--2-2-2-5-5-5-0-0-0-0-0-0-0-0-0-0-2-2-2-2-2-2-3-3-3-3-3-3-3-5-5-5--|
C#||--2-2-2-5-5-5-0-0-0-0-0-0-0-0-0-0---------------------------5-5-5--|
      . . . . . . . . . . . . . . . . . . . . . . . . . . . . . . . .


Guitar 1:
D#||-------------------------------------------------------------------|
A#||----------------------------------8-8-8-8-8-8-8-8-8-8-8-8-8-8-8-8--|
F#||--9-9-9-9-9-9-9-9-9-9-9-9-9-9-9-9-9-9-9-9-9-9-9-9-9-9-9-9-9-9-9-9--|
C#||-------------------------------------------------------------------|
G#||-------------------------------------------------------------------|
C#||-------------------------------------------------------------------|
      . . . . . . . . . . . . . . . . . . . . . . . . . . . . . . . .


D#||-------------------------------------------------------------------|
A#||--8-8-8-8-8-8-8-8-8-8-8-8-8-8-8-8-8-8-8-8-8-8-8-8-8-8-8-8-8-8-8-8--|
F#||--9-9-9-9-9-9-9-9-9-9-9-9-9-9-9-9-9-9-9-9-9-9-9-9-9-9-9-9-9-9-9-9--|
C#||-------------------------------------------------------------------|
G#||-------------------------------------------------------------------|
C#||-------------------------------------------------------------------|
      . . . . . . . . . . . . . . . . . . . . . . . . . . . . . . .


Guitar 2:
D#||-------------------------------------------------------------------|
A#||-------------------------------------------------------------------|
F#||-------------------------------------------------------------------|
C#||----------------------------------5-5-5-5-5-5-5-5-5-5-5-5-5--------| x2
G#||--2-2-2-5-5-5-0-0-0-0-0-0-0-0-0-0-2-2-2-2-2-2-3-3-3-3-3-3-3-5-5-5--|
C#||--2-2-2-5-5-5-0-0-0-0-0-0-0-0-0-0---------------------------5-5-5--|
      . . . . . . . . . . . . . . . . . . . . . . . . . . . . . . . .



Pre-Chorus
Guitar 1:
D#||-------10h12--------10h12--------10h12--------|
A#||---------------------------------------10h12--|
F#||--12-9-------9-12-9-------9-12-9--------------|
C#||----------------------------------------------| x2
G#||----------------------------------------------|
C#||----------------------------------------------|


Guitar 1 (Dub):
D#||--------14h15----------14h15----------14h15--------|
A#||--15-------------15-------------15----------15h17--|
F#||---------------------------------------------------|
C#||-----14-------14----14-------14----14--------------|
G#||---------------------------------------------------|
C#||---------------------------------------------------|


Guitar 2:
D#||-------|------|
A#||-------|------|
F#||--9~\--|------|
C#||--9~\--|--2~--|
G#||--7~\--|--2~--|
C#||-------|--2~--|



Chorus
Guitar 1:
D#||-------10h12--------10h12--------10h12--------|
A#||---------------------------------------10h12--|
F#||--12-9-------9-12-9-------9-12-9--------------|
C#||----------------------------------------------| x4
G#||----------------------------------------------|
C#||----------------------------------------------|


Guitar 2:
D#||-------------------------------------------------------------------|
A#||-------------------------------------------------------------------|
F#||----------------------------------4-4-4-4-4-4-4-5-5-5-5-5-5-5------|
C#||--2-2-2-5-5-5-0-0-0-0-0-0-0-0-0-0-5-5-5-5-5-5-5-5-5-5-5-5-5-5-5-5--|
G#||--2-2-2-5-5-5-0-0-0-0-0-0-0-0-0-0-2-2-2-2-2-2-3-3-3-3-3-3-3-5-5-5--|
C#||--2-2-2-5-5-5-0-0-0-0-0-0-0-0-0-0---------------------------5-5-5--|


D#||-----------------------------------------------------------------|
A#||-----------------------------------------------------------------|
F#||----------------------------------4~----4~----5~-----------------|
C#||--2-2-2-5-5-5-0-0-0-0-0-0-0-0-0-0-5~--x-5~--x-5~--5-5-5-5-5-5-5--|
G#||--2-2-2-5-5-5-0-0-0-0-0-0-0-0-0-0-2~--x-2~--x-3~--3-3-3-3-5-5-5--|
C#||--2-2-2-5-5-5-0-0-0-0-0-0-0-0-0-0-------------------------5-5-5--|
                                                      . . . .


Guitar 1:
C#||--------------------------------------------------------------------------------------|
D#||--------------------------------------------------------------------------------------|
A#||--12~--12~--12-12-12-11~---12-12-12-12-12-12-12-12~--12~--12-12-12-7~--7-7~--7-7-7-7--|
F#||--------------------------------------------------------------------------------------|
C#||--------------------------------------------------------------------------------------|
G#||--------------------------------------------------------------------------------------|


C#||--------------------------------------------------------------------------------------------|
D#||------------------------------------------------10~--10~--10-10-10--------------------------|
A#||--12~--12~--12-12-12-11~---12-12-12-12-12-12-12--------------------12~--12-12-7~--7-7-7-(9~)|
F#||--------------------------------------------------------------------------------------------|
C#||--------------------------------------------------------------------------------------------|
G#||--------------------------------------------------------------------------------------------|


Guitar 2:
D#||-------------------------------------------------------------------|
A#||-------------------------------------------------------------------|
F#||----------------------------------4~--4~--4-4-4-5~--5-5~--5--------|
C#||--2~--2~--5-5-5-0~--0-0~--0-0-0-0-5~--5~--5-5-5-5~--5-5~--5-5-5-5--| x2
G#||--2~--2~--5-5-5-0~--0-0~--0-0-0-0-2~--2~--2-2-2-3~--3-3~--3-5-5-5--|
C#||--2~--2~--5-5-5-0~--0-0~--0-0-0-0---------------------------5-5-5--|



Outro
Guitar 1:
D#||------10-----10----------10------10------------12-------12-------------15-------15--------|
A#||----8------8------8----8-------8-------8----10-------10-------10----15-------15-------15--|
F#||--9------9------9---11------11------11---12-------12-------12----17-------17-------17-----|
C#||------------------------------------------------------------------------------------------|
G#||------------------------------------------------------------------------------------------|
C#||------------------------------------------------------------------------------------------|


D#||-------15~---15~------------15~---15~---15~-----|-------15----15h17p15-----------------|
A#||--17~-----17~---17~---19~------19~---19~---19~--|--15~-----15----------\13~--13-13-13--|
F#||------------------------------------------------|--------------------------------------|
C#||------------------------------------------------|--------------------------------------|
G#||------------------------------------------------|--------------------------------------|
C#||------------------------------------------------|--------------------------------------|


D#||----------------------|
A#||--15-13-15-15-15/17~--|
F#||----------------------|
C#||----------------------|
G#||----------------------|
C#||----------------------|


Guitar 2:
D#||-------------------------------------------------------------------|
A#||-------------------------------------------------------------------|
F#||----------------------------------4~--4~--4-4-4-5~--5-5~--5--------|
C#||--2~--2~--5-5-5-0~--0-0~--0-0-0-0-5~--5~--5-5-5-5~--5-5~--5-5-5-5--| x2
G#||--2~--2~--5-5-5-0~--0-0~--0-0-0-0-2~--2~--2-2-2-3~--3-3~--3-5-5-5--|
C#||--2~--2~--5-5-5-0~--0-0~--0-0-0-0---------------------------5-5-5--|


D#||------------------------|
A#||------------------------|
F#||------------------------|
C#||--2-2-0-2---2---2~---\--|
G#||--2-2-0-2---2---2~---\--|
C#||--2-2-0-2---2---2~---\--|




Tablature Legend
----------------
 h   hammer-on
 p   pull-off
 b   bend
 pb  pre-bend
 r   release bend
 ~   hold / vibrato
 .   palm mute
 /   slide up
 \   slide down
 *   pinch harmonic
 '   natural harmonic
 x   mute note
 T   tap
Tap to rate this tab
# A B C D E F G H I J K L M N O P Q R S T U V W X Y Z