Song name
# A B C D E F G H I J K L M N O P Q R S T U V W X Y Z

Her Space Holiday - Sleepy Tigers chords

Highlighted       Show chord diagrams
Her Space Holiday - Sleepy Tigers
from XOXO Panda And The New Kid Revival
Tab by PMF

Easy enough, just play the chords along or play the fills too, they're not too hard.


Standard - Capo 2

A Fill                D Fill                E Fill
--------------------  --------------------  -----0-------0------|
-2-----------2------  -----3-------3------  --------------------|
---4-2---2-4--------  ---2---2---2---2----  ---1---1---1---1----|
-------4------------  -0-------0----------  -2-------2----------|
--------------------  --------------------  --------------------|
--------------------  --------------------  --------------------|

Bridge Fill
--------------------  --------------------|
-0h2-------0h2------  -0h2----------------|
-----2-1-2-----2---2  -----2-1-2-0h2------|
-----------------4--  ---------------4-2--|
--------------------  --------------------|
--------------------  --------------------|


A

A
Oh I like you so very much so much in fact I gotta wake you up
It’s not that I have words to speak
I just wanna see you looking at me
     D         E
In a way, that states
A
In an hour when the sun comes up
We’re gonna put on our shoes we’re gonna shake the dust
Open the door with your brand new key
We won’t be afraid of being sweet
      D
to ourselves
E
Or anybody! anybody else!

A

A
Oh I miss you so very much so much in fact i gotta call you up
It’s not that I have news to bring
I just wanna make your telephone ring
      D     E
So it shows  and you know
A
In a week when I fly back home
We’re gonna jump in bed and be all alone
you’ll make biscuits and I’ll make tea
We’ll curl up close and then fall asleep
       D      E
To the sound… of no one else no else around

C#m                Bm
And if Ive learned anything at all
In this short life of mine
If you hear that joy has come to town
C#m                   Bm           E
Track it down, take a picture and tape it to your eyes

Bridge Fill x4

A
Oh I love you so very much so much in fact I'm gonna switch it up
I'm gonna take this room that I built for fun
And burn down the walls in front of everyone
   D         E
So they see,  you and me
A
Dancing in our sleepy clothes
With two big smiles and a bowl of hope!
That we’ll drink down like ginger tea
                                      D
The heat will help us forget everything
     E
That you and I, that you and I have seen

C#m                Bm
And if Ive learned anything at all
In this short life of mine
If you hear that joy has come to town
C#m                   Bm           E
Track it down, take a picture and tape it to your eyes
Tap to rate this tab
 
# A B C D E F G H I J K L M N O P Q R S T U V W X Y Z