Song name
# A B C D E F G H I J K L M N O P Q R S T U V W X Y Z

Her Space Holiday - The Boys And Girls tab

Pretty simple, no capo required :)

Guitar 1 (played through whole song):

e|---------------------------------------------------------------------------|
b|---------------------------------------------------------------------------|
g|---------------------------------------------------------------------------|
D|------4--------------------------------------------------------------------|
A|---5---------4-------2--------4--------------------------------------------|
E|----------5-------3--------5-----------------------------------------------|


Guitar 2 (played through whole song after 0:32)

e|-----------------------------------------------------------------------------|
b|-----------------------------------------------------------------------------|
g|-----------------------------------------------------------------------------|
D|---9---7---------------------------------------------------------------------|
A|-----------9---7-------------------------------------------------------------|
E|------------------10---7---7---10--------------------------------------------|
Tap to rate this tab
# A B C D E F G H I J K L M N O P Q R S T U V W X Y Z