Song name
# A B C D E F G H I J K L M N O P Q R S T U V W X Y Z

Herbert Groenemeyer - Mensch tab

tabbed by Czily
example: http://www.youtube.com/watch?v=0dCZ-xPFoy4

Herbert Groenemeyer - Mensch
Capo 2


Intro
|-------------------------------------------|
|---3---3---3---3--1-1-1-1-1-1-1-1-1-1-1----|
|--2-2-2-2-2-2-2-2--0-----0-----0-----0-0---|
|-0---0---0---0-----------------------------|
|-------------------------------------------|
|-------------------------------------------|
  pm.....................................

|-----------------------------------------------------|
|-----------------------------------------------------|
|--2-----------------------------------------3-3-2-2--|
|--3-22222222222222----------3-3-2-2-5-5-3-3----------|
|--0-00000000000000--1-1-0-0--------------------------|
|-----------------------------------------------------|
     Pm............

|-----------------------------------|
|-----------------------------------|
|-2----------2--2--2----------2--2--|
|-2-2222222--2--2--2-2222222--2--2--|
|-0-0000000--0--3--0-0000000--0--3--|
|-----------------------------------|
    pm.....          pm.....


Verse Riff
|-----------------------------------------------------------------|
|-----------------------------------------------------------------|
|-2----------2--2--2----------2--2----------2--2------------------|
|-2-2222222--2--2--2-2222222--2--0-2222222--2--0--2----------2--0-|
|-0-0000000--0--3--0-0000000--3--2-0000000--0--2--2-2222222--2--2-|
|-------------------------------------------------0-0000000--0--3-|
    pm.....          pm.....       pm.....          pm.....

|-----------------------------------------------------------------|
|-----------------------------------------------------------------|
|-2----------2--2--2----------2--2----------2--2------------------|
|-2-2222222--2--2--2-2222222--2--0-2222222--2--0--0----------0--0-|
|-0-0000000--0--3--0-0000000--3--2-0000000--0--2--2-2222222--2--2-|
|-------------------------------------------------3-3333333--3--3-|
    pm.....          pm.....       pm.....          pm.....



Verse 1 (Verse Riff)
Am
   Momentan ist richtig, momentan ist gut

nichts ist wirklich wichtig
         E
nach der Ebbe kommt die Flut
G- Am
       am Strand des Lebens ohne Grund, ohne Verstand
                                 G
ist nichts vergebens ich bau die Traeume auf den Sand


Chorus (strum the chords)
           Dsus2
und es ist,   es ist ok alles auf dem Weg,
           Cmaj7
und es ist Sonnenzeit unbeschwert und frei
        Dsus2
und der Mensch heisst Mensch weil er vergisst,
                               Cmaj7
weil er verdraengt und weil er schwaermt und staehlt

weil er waermt, wenn er erzaehlt
                Dsus2              Am
und weil er lacht, weil er lebt du fehlst...


Verse 2
das Firmament hat geoeffnet, wolkenlos und ozeanblau
Telefon, Gas, Elektrik unbezahlt, und das geht auch
teil mit mir deinen Frieden, wenn auch nur geborgt
ich will nicht deine Liebe, ich will nur dein Wort


Chorus
und es ist, es ist ok alles auf dem Weg,
und es ist Sonnenzeit ungetruebt und leicht
und der Mensch heisst Mensch weil er irrt und weil er kaempft
und weil er hofft und liebt weil er mitfuehlt und vergibt
und weil er lacht, weil er lebt du fehlst...
Ohhh weil er lacht, weil er lebt du fehlst...


Solo (like in the above mentioned video)
|--5---0-----------0-5---0---------0--0--0--|
|--1---0-----------1-1---0---------0--0--0--|
|--0---2-3-4-3-4---2-0---2-3-4-3-4-4--2--1--|
|--2---0-----------2-2---0---------0--0--0--|
|------2-----------------2---------2--2--2--|
|-------------------------------------------|

-----------------------------------------------------|
-----------------------------------------------------|
--2-----------------------------------------3-3-2-2--|
--3-22222222222222----------3-3-2-2-5-5-3-3----------|
--0-00000000000000--1-1-0-0--------------------------|
-----------------------------------------------------|


Chorus
Oooohh es ist ok alles auf dem Weg,
und es ist Sonnenzeit ungetruebt und leicht
und der Mensch heisst Mensch weil er vergisst,
weil er verdraengt und weil er schwaermt und glaubt
sich anlehnt und vertraut
und weil er lacht, weil er lebt du fehlst...


Ohh es ist schon ok es tut gleichmaessig weh,
und es ist Sonnenzeit ohne Plan ohne Geleit
und der Mensch heisst Mensch weil er erinnert, weil er kaempft
und weil er hofft und liebt weil er mitfuehlt und vergibt
und weil er lacht, weil er lebt du fehlst...
oohh weil er lacht, weil er lebt du fehlst...
Tap to rate this tab
 
# A B C D E F G H I J K L M N O P Q R S T U V W X Y Z