Song name
# A B C D E F G H I J K L M N O P Q R S T U V W X Y Z

Herbert Groenemeyer - Dort Und Hier tab

INTRO
e|----------------------------------|----------------------------------|
B|--7-------7-------7-------5-------|--3---------------3-----5-----3---|
G|----------------------------------|----------0-----------------------|
D|------7-------7-------7-------4---|------4-------4-------4-----5-----|
A|----------------------------------|----------------------------------|
E|----------------------------------|----------------------------------|

e|----------------------------------|----------------------------------|
B|--2-----------2-/-5-----7-----5---|--3---------------3--------------/|
G|----------0-----------------------|----------0-----------0-----------|
D|------2---------------5-----7-----|------4-------4-----------4-------|
A|----------------------------------|----------------------------------|
E|----------------------------------|----------------------------------|

e|----------------------------------|----------------------------------|
B|/-7-----------7---7-----8-----5---|--3---------------3-----5-----3---|
G|---------(7)----------------------|----------0-----------------------|
D|------7-------------/-9---5-------|------4-------4-------4---/-5-----|
A|----------------------------------|----------------------------------|
E|----------------------------------|----------------------------------|

e|----------------------------------|----------------------------------|
B|--2----------(2)/-5-----7-----5---|--3--------------(3)--------------|
G|----------0-----------------------|----------0-----------0-----------|
D|------2---------------5-----7-----|------4-------4-----------4-------|
A|----------------------------------|----------------------------------|
E|----------------------------------|----------------------------------|


VERSE 1
e|----------------------------------|----------------------------------|
B|5h7-----------7---7-----8-----10--|--3---------------3-----2----(3)-/|
G|----------7-----------------------|----------0-----------------------|
D|------7---------------7-----9-----|------4-------4-------4-----2-----|
A|----------------------------------|----------------------------------|
E|----------------------------------|----------------------------------|
  Die Nacht schluckt jedes schwere Gewicht,                 entlässt den

e|----------------------------------|----------------------------------|
B|/-6---------------6-------5-------|/-8------(8)-----(8)------8-------|
G|----------6-----------------------|----------------------------------|
D|------7-------7-------7-------6---|------8------(8)--------------7---|
A|----------------------------------|----------------------------------|
E|----------------------------------|----------------------------------|
  Tag                       aus der Pflicht.

e|----------------------------------|----------------------------------|
B|5h7-----------7---7-----8-----10--|--3---------------3-----2-----3--/|
G|----------7-----------------------|----------0-----------------------|
D|------7---------------7-----9-----|------4-------4-------4-----2-----|
A|----------------------------------|----------------------------------|
E|----------------------------------|----------------------------------|
  Der Mond steht steil und tut wieder nichts.            Ich schließ die

e|----------------------------------|----------------------------------|
B|/-6---------------6----(6)/8------|\-5------(5)------5-------6-------|
G|----------6-----------------------|----------------------------------|
D|------7-------7-------7-------8---|------5------(5)-----(5)-----(7)--|
A|----------------------------------|----------------------------------|
E|----------------------------------|----------------------------------|
  Augen                 und denk an dich.                     Ist jemand


CHORUS
e|----------------------------------|----------------------------------|
B|/-7-------7-------7-------5-------|--3---------------3-----5-----3---|
G|----------------------------------|----------0-----------------------|
D|------7-------7-------7-------4---|------4-------4-------4-----5-----|
A|----------------------------------|----------------------------------|
E|----------------------------------|----------------------------------|
  da,              wenn dein Flügel bricht,             der ihn für dich

e|----------------------------------|----------------------------------|
B|--2----------(2)/-5-----7-----5---|--3---------------3--------------/|
G|----------0-----------------------|----------0--------------(0)------|
D|------2---------------5-----7-----|------4-------4-------4-------4---|
A|----------------------------------|----------------------------------|
E|----------------------------------|----------------------------------|
  schient,               der dich beschützt,                der für dich

e|----------------------------------|----------------------------------|
B|/-7-------------/-8-----\-5-------|--3---------------3-----5-----3---|
G|----------7-----------------------|----------0-----------------------|
D|------7-------7-------9-------5---|------4-------4-------4-----5-----|
A|----------------------------------|----------------------------------|
E|----------------------------------|----------------------------------|
  wacht,            dich auf Wolken trägt,           für dich die Sterne

e|----------------------------------|----------------------------------|
B|--2-------------/-5-----7-----5---|--3---------------3---------------|
G|----------0-----------------------|----------0-----------------------|
D|------2---------------5-----7-----|------4-------4-------------------|
A|----------------------------------|----------------------------------|
E|----------------------------------|----------------------------------|
  zählt,                    wenn du schläfst.


VERSE 2
e|----------------------------------|----------------------------------|
B|5h7-----------7---7-----8-----10--|--3---------------3-----2-----3--/|
G|----------7-----------------------|----------0-----------------------|
D|------7---------------7-----9-----|------4-------4-------4-----2-----|
A|----------------------------------|----------------------------------|
E|----------------------------------|----------------------------------|
  Ich versuch mir einen Traum vorzuprogrammieren           und stell mir

e|----------------------------------|----------------------------------|
B|/-6---------------6-------5-------|/-8------(8)-----(8)--------------|
G|----------6-----------------------|----------------------------------|
D|------7-------7-------7-------6---|------8------(8)--------------7---|
A|----------------------------------|----------------------------------|
E|----------------------------------|----------------------------------|
  vor,                  du kämst zu mir.                      Ich sollte

e|----------------------------------|----------------------------------|
B|5h7-----------7---7-----8-----10--|--3---------------3-----2-----3--/|
G|----------7-----------------------|----------0-----------------------|
D|------7---------------7-----9-----|------4-------4-------4-----2-----|
A|----------------------------------|----------------------------------|
E|----------------------------------|----------------------------------|
  aufhör'n,      mein Hirn zu strapazieren.                      Du bist

e|----------------------------------|----------------------------------|
B|/-6---------------6----(6)/8------|\-5------(5)------5-------6-------|
G|----------6-----------------------|----------------------------------|
D|------7-------7-------7-------8---|------5------(5)------5-------7---|
A|----------------------------------|----------------------------------|
E|----------------------------------|----------------------------------|
  dort,                 und ich bin hier.                     Ist jemand


CHORUS
e|----------------------------------|----------------------------------|
B|/-7-------7-------7-------5-------|--3---------------3-----5-----3---|
G|----------------------------------|----------0-----------------------|
D|------7-------7-------7-------4---|------4-------4-------4-----5-----|
A|----------------------------------|----------------------------------|
E|----------------------------------|----------------------------------|
  da,              wenn dein Flügel bricht,             der ihn für dich

e|----------------------------------|----------------------------------|
B|--2----------(2)/-5-----7-----5---|--3---------------3--------------/|
G|----------0-----------------------|----------0--------------(0)------|
D|------2---------------5-----7-----|------4-------4-------4-------4---|
A|----------------------------------|----------------------------------|
E|----------------------------------|----------------------------------|
  schient,               der dich beschützt,                der für dich

e|----------------------------------|----------------------------------|
B|/-7-------7-------7----/8-----5---|--3---------------3-----5-----3---|
G|----------------------------------|----------0-----------------------|
D|------7-------7-------7---5-------|------4-------4-------4-----5-----|
A|----------------------------------|----------------------------------|
E|----------------------------------|----------------------------------|
  wacht,            dich auf Wolken trägt,           für dich die Sterne

e|----------------------------------|----------------------------------|
B|--2-------------/-5-----7-----5---|--3---------------7-----7-----3---|
G|----------0-----------------------|----------0-----------------------|
D|------2---------------5-----7-----|------4-------4-------7-----4-----|
A|----------------------------------|----------------------------------|
E|----------------------------------|----------------------------------|
  zählt,                    wenn du schläfst.


ENDING
e|----------------------------------|----------------------------------|
B|--2-----------2-/-5-----7-----5---|--3-------------/-7----/8-----3---|
G|----------0-----------------------|----------0-----------------------|
D|------2---------------5-----7-----|------4-------4-------7-----5-----|
A|----------------------------------|----------------------------------|
E|----------------------------------|----------------------------------|
                         ...wenn du schläfst.

e|----------------------------------|----------------------------------||
B|--5---------------5-----7----\5---|\-3---------------3~~~------------||
G|----------------------------------|----------0-----------------------||
D|------5---7---5-------5-----7-----|------4-------4-------------------||
A|----------------------------------|----------------------------------||
E|----------------------------------|----------------------------------||
Tap to rate this tab
# A B C D E F G H I J K L M N O P Q R S T U V W X Y Z