Song name
# A B C D E F G H I J K L M N O P Q R S T U V W X Y Z

Herbie Hancock - Stitched Up tab

-----------------------------------------------------------------------------
			     Stitched Up - John Mayer and Herbie Hancock
-----------------------------------------------------------------------------
Tabbed by: tearhere619
Email: jv061891@gmail.com

Title: Stitched Up
Artist(s): John Mayer and Herbie Hancock
Album: Possibilities (2005)
Tuning: Standard

*Hey guys...This is my first tab so go easy on me. I hope you like it.

Verses:

"Exactly how you hear it, is exactly how it all went down… "

e|-------------------------|--------|
B|-------------------------|--------|
G|----6-----4-----5-----2--|---(9)--| (Repeat until chorus)
D|----7-----4-----4-----2--|---(7)--| 
A|----0-----6-----5-----0--|---(8)--|
E|-------------------------|---(7)--|

Chorus:

"Don’t wanna be, stitched up out of my mind 
Feeling strung out, laggin’ behind..."

e|----------------------|----------------------|
B|----------------------|----------------------|
G|---6---------5--------|---6---------5----5---| (2x)
D|---7----5----4----5---|---7----5----4----4---|
A|---5----2----5----2---|---5----2----5----5---|
E|--------3---------3---|--------3-------------|

Bridge:

This is with the aahs and oohs...

       Dm7       G7       CM7      Am9 or C13
e|------5---------3--------x-----------x-------|
B|------6---------3--------5-----------x-------| (Repeat then stop on G7)
G|------5---------4--------4-----------5-------|
D|------7---------3--------5-----------5-------|
A|------5---------5--------3-----------x-------|
E|------x---------3--------x-----------5-------|

Outro:

"Stitch me up, string me out 
Trap me in, lock me down..."

e|------------------------|
B|------------------------|
G|----6---------5---------|
D|----7----3----4----3----|
A|----5----2----5----2----|
E|---------5---------5----|

There's a lick at the end of every chorus and verse. It goes:

e|----12---10--------------------------|
B|------------13----10-----------------|
G|----------------------12---10---9----|
D|-------------------------------------|
A|-------------------------------------|
E|-------------------------------------|

END

| /  slide up
| \  slide down
| h  hammer-on
| p  pull-off
| ~  vibrato
| +  harmonic
| x  Mute note
===============================================================================
Tap to rate this tab
# A B C D E F G H I J K L M N O P Q R S T U V W X Y Z