Song name
# A B C D E F G H I J K L M N O P Q R S T U V W X Y Z

Herbie Hancock - Chameleon tab

remember this is the difficult jazz perfect version and not only the riff


bass
     E  E  Q    E  E  Q       E  E  Q    H           W                 
G||--3--3-------1--1-------|--3--3-------6--------|--L----------------|
D||------------------------|----------------------|-------------------|
A||------------------------|----------------------|-------------------|
E||------------------------|----------------------|-------------------|


  Q    Q    Q    Q       Q    E  E  Q    Q       Q    Q    Q    Q     
--L-------------------|------------------3----|----------------------|
----------------------|----------6------------|----------------------|
----------------------|-----------------------|-------3----4----5----|
-------3----4----5----|--6--------------------|----------------------|


  Q    E  E  Q    Q       Q    Q    Q    Q         Q    E  E  Q    Q     
----------3-------6----|----------------------||-------------------3----|
-----------------------|----------------------||*----------6------------|
--6--------------------|----------------------||*-----------------------|
-----------------------|-------3----4----5----||---6--------------------|


  Q    Q    Q    Q       Q    E  E  Q    Q       Q    Q    Q    Q     
----------------------|----------3-------6----|----------------------|
----------------------|-----------------------|----------------------|
-------3----4----5----|--6--------------------|----------------------|
----------------------|-----------------------|-------3----4----5----|


  Q    E  E  Q    Q       Q    Q    Q    Q       Q    E  E  Q    Q     
------------------3----|----------------------|----------3-------6----|
----------6------------|----------------------|-----------------------|
-----------------------|-------3----4----5----|--6--------------------|
--6--------------------|----------------------|-----------------------|


  Q    Q    Q    Q          Q    E  E  Q    Q       Q    Q    Q    Q     
-----------------------||-------------------3----|----------------------|
----------------------*||*----------6------------|----------------------|
----------------------*||*-----------------------|-------3----4----5----|
-------3----4----5-----||---6--------------------|----------------------|


  Q    E  E  Q    Q       Q    Q    Q    Q       Q    E  E  Q    Q     
----------3-------6----|----------------------|------------------3----|
-----------------------|----------------------|----------6------------|
--6--------------------|----------------------|-----------------------|
-----------------------|-------3----4----5----|--6--------------------|


  Q    Q    Q    Q       Q    E  E  Q    Q       Q    Q    Q    Q       
----------------------|----------3-------6----|-----------------------||
----------------------|-----------------------|----------------------*||
-------3----4----5----|--6--------------------|----------------------*||
----------------------|-----------------------|-------3----4----5-----||


  Q    Q    H           Q    H.              H        Q    Q     
---------------------|--------------------|---------------------|
-------3----1--------|--1-----------------|---------------------|
---------------------|-------4------------|----------------1----|
---------------------|--------------------|---------------------|


  W                   W                   W                   W                 
-------------------|-------------------|-------------------|-------------------|
-------------------|-------------------|-------------------|-------------------|
--L----------------|--L----------------|--L----------------|-------------------|
-------------------|-------------------|-------------------|-------------------|


  Q    Q    Q    Q       Q    E  E  Q    Q       Q    Q    Q    Q     
----------------------|------------------3----|----------------------|
----------------------|----------6------------|----------------------|
----------------------|-----------------------|-------3----4----5----|
-------3----4----5----|--6--------------------|----------------------|


  Q    E  E  Q    Q       Q    Q    Q    Q       Q    E  E  Q    Q     
----------3-------6----|----------------------|------------------3----|
-----------------------|----------------------|----------6------------|
--6--------------------|----------------------|-----------------------|
-----------------------|-------3----4----5----|--6--------------------|


  Q    Q    Q    Q       Q    E  E  Q    Q       Q    Q    Q    Q     
----------------------|----------3-------6----|----------------------|
----------------------|-----------------------|----------------------|
-------3----4----5----|--6--------------------|----------------------|
----------------------|-----------------------|-------3----4----5----|


  Q    E  E  Q    Q       Q    Q    Q    Q       Q    E  E  Q    Q     
------------------3----|----------------------|----------3-------6----|
----------6------------|----------------------|-----------------------|
-----------------------|-------3----4----5----|--6--------------------|
--6--------------------|----------------------|-----------------------|


  Q    Q    Q    Q       Q    E  E  Q    Q       Q    Q    Q    Q     
----------------------|------------------3----|----------------------|
----------------------|----------6------------|----------------------|
----------------------|-----------------------|-------3----4----5----|
-------3----4----5----|--6--------------------|----------------------|


  Q    E  E  Q    Q       Q    Q    Q    Q       Q    E  E  Q    Q     
----------3-------6----|----------------------|------------------3----|
-----------------------|----------------------|----------6------------|
--6--------------------|----------------------|-----------------------|
-----------------------|-------3----4----5----|--6--------------------|


  Q    Q    Q    Q       Q    E  E  Q    Q       Q    Q    Q    Q     
----------------------|----------3-------6----|----------------------|
----------------------|-----------------------|----------------------|
-------3----4----5----|--6--------------------|----------------------|
----------------------|-----------------------|-------3----4----5----|


  Q    E  E  Q    Q       Q    Q    Q    Q       Q    E  E  Q    Q     
------------------3----|----------------------|----------3-------6----|
----------6------------|----------------------|-----------------------|
-----------------------|-------3----4----5----|--6--------------------|
--6--------------------|----------------------|-----------------------|


  Q    Q    Q    Q       Q    E  E  Q    Q       Q    Q    Q    Q     
----------------------|------------------3----|----------------------|
----------------------|----------6------------|----------------------|
----------------------|-----------------------|-------3----4----5----|
-------3----4----5----|--6--------------------|----------------------|


  Q    E  E  Q    Q       Q    Q    Q    Q       Q    E  E  Q    Q     
----------3-------6----|----------------------|------------------3----|
-----------------------|----------------------|----------6------------|
--6--------------------|----------------------|-----------------------|
-----------------------|-------3----4----5----|--6--------------------|


  Q    Q    Q    Q       Q    E  E  Q    Q       Q    Q    Q    Q     
----------------------|----------3-------6----|----------------------|
----------------------|-----------------------|----------------------|
-------3----4----5----|--6--------------------|----------------------|
----------------------|-----------------------|-------3----4----5----|


  Q    Q    H           Q    H.              H        Q    Q     
---------------------|--------------------|---------------------|
-------3----1--------|--1-----------------|---------------------|
---------------------|-------4------------|----------------1----|
---------------------|--------------------|---------------------|


  Q.     E  E  E  Q       H        Q    Q       Q.     E  E  E  Q     
------------3--3-------|---------------------|------------1--1-------|
---------3-------------|---------------------|---------1-------------|
--L--------------------|---------------------|-----------------------|
-----------------------|----------------4----|--L--------------------|


  Q.     E  E  E  Q       Q.     E  E  E  Q       Q    E  E  Q    Q     
------------1--1-------|------------3--3-------|-----------------------|
---------1-------------|---------3-------------|-----------------------|
-----------------------|--1--------------------|--1-------0------------|
--4--------------------|-----------------------|------------------4----|


  Q.     E  Q    Q       H        Q    Q         Q    E  E  Q    Q     
------------1---------|---------------------||-----------1-------3----|
---------1------------|---------------------||*-----------------------|
----------------------|---------------------||*-----------------------|
--L--------------4----|--1--------4----5----||---6--------------------|


  Q    Q    Q    Q       Q    E  E  Q    Q       Q    Q    Q    Q       
----------------------|----------3-------5----|-----------------------||
----------------------|-----------------------|----------------------*||
-------3----4----5----|--6--------------------|----------------------*||
----------------------|-----------------------|-------3----4----5-----||


   Q    E  E  Q    Q       Q    Q    Q    Q       Q    E  E  Q    Q     
-----------1-------3----|----------------------|----------3-------5----|
*-----------------------|----------------------|-----------------------|
*-----------------------|-------3----4----5----|--6--------------------|
---6--------------------|----------------------|-----------------------|


  Q    Q    Q    Q         Q    Q    H           Q    H.            
-----------------------||---------------------|--------------------|
----------------------*||-------3-------------|--------------------|
----------------------*||------------6--------|--6----4------------|
-------3----4----5-----||---------------------|--------------------|


  Q.     E  Q    Q       W                   W                 
----------------------|-------------------|-------------------|
----------------------|-------------------|-------------------|
--1------0--L---------|-------------------|-------------------|
-----------------1----|--L----------------|--L----------------|


  Q    Q    Q    Q       Q    E  E  Q    Q      
----------------------|----------1-------3----||
----------------------|-----------------------||
----------------------|-----------------------||
--L----3----4----5----|--6--------------------||




Duration Legend
---------------
W - whole
H - half
Q - quarter
E - 8th
S - 16th
T - 32nd
X - 64th
. - note dotted
|-n-|  - n-tuplets


Tablature Legend
----------------
L - tied note
x - dead note
g - grace note
(n) - ghost note
> - accentuded note
NH - natural harmonic
AH - artificial harmonic
TH - tapped harmonic
SH - semi harmonic
PH - pitch harmonic
h - hammer on
p - pull off
b - bend
br - bendRelease
pb - preBend
pbr - preBendRelease
brb - bendReleaseBend
\n/ - tremolo bar dip
\n - tremolo bar dive
-/n - tremolo bar Release up
/n\ - tremolo bar inverted dip
/n - tremolo bar return
-\n - tremolo bar Release down
S - shift slide
s - legato slide
/ -  slide into from below or out of upwards
\ -  slide into from above or out of downwards
~ - vibrato
W - wide vibrato
tr - trill
TP - tremolo picking
T - tapping
S - slap
P - pop
< - fade in
^ - brush up
v - brush down

Tabbed By JohannesB.
this took a very long time
Tap to rate this tab
# A B C D E F G H I J K L M N O P Q R S T U V W X Y Z