Song name
# A B C D E F G H I J K L M N O P Q R S T U V W X Y Z

Herbie Hancock - Chameleon tab

Tabbed by: TrainMasta3
Standard Tuning

E-----------------------------------|
B---------------------2~~~~~~~~-----|
G---3-3---1-1---3-3-----------------|
D-----------------------------------|        INTRO
A-----------------------------------|
E-----------------------------------|

E--------------------------------|
B--------------------------2-----|
G----------1-3~~---------3-------|       X2
D--------------------------------|
A---------------3-4-5-6----------|
E--3-4-5-6-----------------------|

E----------------------------------------------1~-3~~--|
B---------1-1-----1-1--4~~~-1-----1-------1------------|
G-------------3-3-------------------3-0-3--------------|
D------------------------------------------------------|   X2
A------------------------------------------------------|
E-3-4-5-6----------------------------------------------|

E-3-1~~-1--------------------------------------1~-3~~--------|
B---------4~~--4-6-4--4-1---1~~~~--1--------1----------------|
G-------------------------3-----------3-0-3------------------|     X2
D------------------------------------------------------------|
A------------------------------------------------------------|
E------------------------------------------------------------|

E-3-1~~-1--------------------------------------------|
B---------4~~--4-6-4--4-1----------------------------|
G-------------------------3-0~~~~~~~~~~~~~~~~~~~~~~--|
D----------------------------------------------------|
A----------------------------------------------------|
E----------------------------------------------------|

CHORDS UNDER SOLO(S)

SWITCH BETWEEN Bb minor and Eb major EVERY TWO MEASURES
WHEN SOLOS ARE FINISHED:
E-3-1~~-1--------------------------------------1~-3~~--------|
B---------4~~--4-6-4--4-1---1~~~~--1--------1----------------|
G-------------------------3-----------3-0-3------------------|     X2
D------------------------------------------------------------|
A------------------------------------------------------------|
E------------------------------------------------------------|

E-3-1~~-1--------------------------------------------------------|
B---------4~~--4-6-4--4-1-----------------------------------2~~--|
G-------------------------3-2~~~~~--0~~~~~0-0-2~~~~-2-1-0~~~-----|
D----------------------------------------------------------------|
A----------------------------------------------------------------|
E----------------------------------------------------------------|

E--------------------------|
B------------0-2--3-2--0~~-|
G--------------------------|       X2
D--------------------------|
A--------------------------|
E--------------------------|

E--------------------------|
B--4~--------0-2--3-2--0~~-|
G--------------------------|       X2
D--------------------------|
A--------------------------|
E--------------------------|

E-------------------------------------------------------1-3-|
B-3-1~--1------------1-3~~~~~~~~~~~~~~~~~~~~~---------------|
G---------3~~--3-0-3----------------------------------------|
D-----------------------------------------------------------|
A-----------------------------------------------------------|
E-----------------------------------------------3-4-5-6-----|
Tap to rate this tab
 
# A B C D E F G H I J K L M N O P Q R S T U V W X Y Z