Song name
# A B C D E F G H I J K L M N O P Q R S T U V W X Y Z

Herbrightskies - To Write Love On Her Arms tab

Tabbed by: Joshua Garcia (halofreak731@aol.com)

Tabs for the song: To Write Love On Her Arms by Herbrightskies
Please rate and let me know if you have any corrections. Thank you.

As requested, here's the tabs for the song To Write Love On Her Arms by 
Herbrightskies. I apologize
because I don't own and am not an expirienced acoustic player, so this is probably not 100%
accurate. But this is at least a solid effort that I hope helps some.

Tuning: Drop D (D A D G B E)
      
| Do Not Exceed Past Here
Intro
E||------------|---------------|-------------|-------------|------------------|
B||-----7-7-7--|--------7-7-7--|------7-7-7--|------7-7-7--|------7-7-7-------|
G||-----7-7-7--|--------7-7-7--|------7-7-7--|------7-7-7--|--7---7-7-7-------|
D||-----9-9-9--|--------5-5-5--|------9-9-9--|------7-7-7--|--0---0-0-0--x4---|
A||-9---9-9-9--|--3/5---5-5-5--|--9---9-9-9--|--7---7-7-7--|--0---0-0-0-------|
D||-9---9-9-9--|--3/5---5-5-5--|--9---9-9-9--|--7---7-7-7--|--0---0-0-0-------|



Verse
E||------------|-------------|-----------------|-------------|-------------|--2---2-2-2------|
B||-----7-7-7--|------7-7-7--|------7-7-7------|------7-7-7--|------7-7-7--|--3---3-3-3------|
G||-7---7-7-7--|--7---7-7-7--|--7---7-7-7------|--7---7-7-7--|--7---7-7-7--|--x---x-x-x------|
D||-9---9-9-9--|--7---7-7-7--|--0---0-0-0--x2--|--9---9-9-9--|--0---0-0-0--|--2---2-2-2--x2--|
A||-9---9-9-9--|--7---7-7-7--|--0---0-0-0------|--9---9-9-9--|--0---0-0-0--|--2---2-2-2------|
D||-9---9-9-9--|--7---7-7-7--|--0---0-0-0------|--9---9-9-9--|--0---0-0-0--|--2---2-2-2------|


E||------------|-------------|-----------------|
B||-----7-7-7--|------7-7-7--|------7-7-7------|
G||-7---7-7-7--|--7---7-7-7--|--7---7-7-7------|
D||-9---9-9-9--|--7---7-7-7--|--0---0-0-0--x2--|
A||-9---9-9-9--|--7---7-7-7--|--0---0-0-0------|
D||-9---9-9-9--|--7---7-7-7--|--0---0-0-0------|


E||------------|-------------|-------------|-------------|------------------|
B||-----7-7-7--|------7-7-7--|------7-7-7--|------7-7-7--|--7---7-7-7-------|
G||-7---7-7-7--|--7---7-7-7--|--7---7-7-7--|--7---7-7-7--|--7---7-7-7-------|
D||-9---9-9-9--|--5---5-5-5--|--9---9-9-9--|--7---7-7-7--|--5---5-5-5--x4---|
A||-9---9-9-9--|--5---5-5-5--|--9---9-9-9--|--7---7-7-7--|--5---5-5-5-------|
D||-9---9-9-9--|--5---5-5-5--|--9---9-9-9--|--7---7-7-7--|--5---5-5-5-------|




E||------------|-------------|-----------------|
B||-----7-7-7--|------7-7-7--|------7-7-7------|
G||-7---7-7-7--|--7---7-7-7--|--7---7-7-7------|
D||-9---9-9-9--|--7---7-7-7--|--0---0-0-0--x2--|
A||-9---9-9-9--|--7---7-7-7--|--0---0-0-0------|
D||-9---9-9-9--|--7---7-7-7--|--0---0-0-0------|


E||------------|-------------|--2---2-2-2-2-2-2-2-2-2--|
B||-----7-7-7--|------7-7-7--|--3---3-3-3-3-3-3-3-3-3--|
G||-7---7-7-7--|--7---7-7-7--|--x---x-x-x-x-x-x-x-x-x--|
D||-9---9-9-9--|--0---0-0-0--|--2---2-2-2-2-2-2-2-2-2--|
A||-9---9-9-9--|--0---0-0-0--|--2---2-2-2-2-2-2-2-2-2--|
D||-9---9-9-9--|--0---0-0-0--|--2---2-2-2-2-2-2-2-2-2--|


E||------------|-------------|-----------------|
B||-----7-7-7--|------7-7-7--|------7-7-7------|
G||-7---7-7-7--|--7---7-7-7--|--7---7-7-7------|
D||-9---9-9-9--|--7---7-7-7--|--0---0-0-0--x2--|
A||-9---9-9-9--|--7---7-7-7--|--0---0-0-0------|
D||-9---9-9-9--|--7---7-7-7--|--0---0-0-0------|


E||------------|-------------|-------------|-------------|------------------|
B||-----7-7-7--|------7-7-7--|------7-7-7--|------7-7-7--|--7---7-7-7-------|
G||-7---7-7-7--|--7---7-7-7--|--7---7-7-7--|--7---7-7-7--|--7---7-7-7-------|
D||-9---9-9-9--|--5---5-5-5--|--9---9-9-9--|--7---7-7-7--|--0---0-0-0--x4---|
A||-9---9-9-9--|--5---5-5-5--|--9---9-9-9--|--7---7-7-7--|--0---0-0-0-------|
D||-9---9-9-9--|--5---5-5-5--|--9---9-9-9--|--7---7-7-7--|--0---0-0-0-------|



Outro
E||-2-2-2-2-2-2-2-2-2-2-2-2--------------------------|
B||-3-3-3-3-3-3-3-3-3-3-3-3-7-7-7-7-7-7-7-7-7-7-7-7--|
G||-x-x-x-x-x-x-x-x-x-x-x-x-7-7-7-7-7-7-7-7-7-7-7-7--|
D||-2-2-2-2-2-2-2-2-2-2-2-2-5-5-5-5-5-5-5-5-5-5-5-5--|
A||-2-2-2-2-2-2-2-2-2-2-2-2-5-5-5-5-5-5-5-5-5-5-5-5--|
D||-2-2-2-2-2-2-2-2-2-2-2-2-5-5-5-5-5-5-5-5-5-5-5-5--|


E||------------|-------------|-------------|-------------|------------------|
B||-----7-7-7--|------7-7-7--|------7-7-7--|------7-7-7--|--7---7-7-7-------|
G||-7---7-7-7--|--7---7-7-7--|--7---7-7-7--|--7---7-7-7--|--7---7-7-7-------|
D||-9---9-9-9--|--5---5-5-5--|--9---9-9-9--|--7---7-7-7--|--5---5-5-5--x3---|
A||-9---9-9-9--|--5---5-5-5--|--9---9-9-9--|--7---7-7-7--|--5---5-5-5-------|
D||-9---9-9-9--|--5---5-5-5--|--9---9-9-9--|--7---7-7-7--|--5---5-5-5-------|


E||------------------------|
B||--7---7-7-7-7-7-7-7-7-7-|
G||--7---7-7-7-7-7-7-7-7-7-|
D||--5---5-5-5-5-5-5-5-5-5-|
A||--5---5-5-5-5-5-5-5-5-5-|
D||--5---5-5-5-5-5-5-5-5-5-|


E||-2-2-2-2-2-2-2-2-2-2-2-2--------------------------|
B||-3-3-3-3-3-3-3-3-3-3-3-3-7-7-7-7-7-7-7-7-7-7-7-7--|
G||-x-x-x-x-x-x-x-x-x-x-x-x-7-7-7-7-7-7-7-7-7-7-7-7--|
D||-2-2-2-2-2-2-2-2-2-2-2-2-5-5-5-5-5-5-5-5-5-5-5-5--|
A||-2-2-2-2-2-2-2-2-2-2-2-2-5-5-5-5-5-5-5-5-5-5-5-5--|
D||-2-2-2-2-2-2-2-2-2-2-2-2-5-5-5-5-5-5-5-5-5-5-5-5--|


E||------------|-------------|-------------|-------------|-------------|
B||-----7-7-7--|------7-7-7--|------7-7-7--|------7-7-7--|--7---7-7-7--|
G||-7---7-7-7--|--7---7-7-7--|--7---7-7-7--|--7---7-7-7--|--7---7-7-7--|
D||-9---9-9-9--|--5---5-5-5--|--9---9-9-9--|--7---7-7-7--|--0---0-0-0--|
A||-9---9-9-9--|--5---5-5-5--|--9---9-9-9--|--7---7-7-7--|--0---0-0-0--|
D||-9---9-9-9--|--5---5-5-5--|--9---9-9-9--|--7---7-7-7--|--0---0-0-0--|




Tablature Legend
----------------
 h   - hammer-on
 p   - pull-off
 b   - bend
 r   - release bend
 *   - pinch harmonic
 x   - mute note
 .   - palm mute
 /   - slide down
 \   - slide up
Tap to rate this tab
# A B C D E F G H I J K L M N O P Q R S T U V W X Y Z