Herbrightskies - Pretty Things tab

My first tab.

I figured it out while listening..(:


E:---------------------|
B:---------------------|
D:---------------------|
G:---6--6--5--5-6------|     (etc)
A:--8--8--6--6---------|
E:-9--8--7--6----------|

&

E:-----------------|
B:---9-8-----------|
D:-10---8-8-8-8-10-|
G:-----------------|
A:-----------------|
E:-----------------|


The last part could also be.
Because it just sounds the same.

E:------------------|
B:---9-8----------6-|
D:-10---8-8-8-8-----|
G:------------------|
A:------------------|
E:------------------|

That's it (:
Tap to rate this tab
 
# A B C D E F G H I J K L M N O P Q R S T U V W X Y Z